My Morning Jacket - I Will Be There When You Die Chords & Tabs

 

I Will Be There When You Die Chords & Tabs

My Morning Jacket Chords & Tabs

Version: 1 Type: Tab

I Will Be There When You Die Tab

   
----------------------------------------------------------------------------
           I Will Be There When You Die - My Morning Jacket

----------------------------------------------------------------------------

Tabbed by:MCiccone

Email:McDaddy0945@aol.com
*any requests or comments, just i.m me

Tuning: Standard  *CAPO 1st Fret!

* You have to do a certian amount of improvising on the Bridge 2 and Intro
  and Outro!

Intro:

e|------------------1-------------------| There is a million version of this song
B|-3--3p1--3--3p1---1-------------------| out there, in the LIVE one I have he
G|-0--0----0--0-----2-------------------| messes around with these chords in the
D|-2--2----2--2-----3-------------------| Intro a couple times, either way, it
A|-3--3----3--3-------------------------| sounds cool!
E|--------------------------------| x 3-|

Verse:

     C                      F     F                 C
e|--------------------------1-----1------------------------------|
B|---1----------------------1-----1-----------------1------------|
G|---0----------------------2-----2-----------------0------------|
D|---2----------------------3-----3-----------------2------------|
A|---3----------------------3-----3-----------------3------------|
E|--------------------------1-----1------------------------------|

   Joe Was Born In New York City, Son Of Paul And Catherine,
   I Was Born In East Kentucky,   Home Of Wear The Grass Is Dyed

    C              F                    Dm                              G
e|-----------------1--------------------1-------------------------------3--|
B|--1--------------1--------------------3-------------------------------3--|
G|--0--------------2--------------------2-------------------------------0--|
D|--2--------------3----------------------------------------------------0--|
A|--3--------------3----------------------------------------------------2--|
E|-----------------1----------------------------------------------------3--|

  Allways Down And Allways Out, But His 'Morrows Allways Seemed Just Fine.
  Allways Down And Allways Out, But My   Morrows Allways Seemed Just Fine.

Bridge:


e|--------------1------------------------------1--------------|
B|--1-----------3-----------1------------------3--------------|
G|--2-----------2-----------2------------------2--------------|
D|--2-----------------------2---------------------------------|
A|------------------------------------------------------------|
E|------------------------------------------------------------|

  There Will Be Bigotry And There Will Be Open Minds

e|--------------1--------------------1---------------1------------|
B|--1-----------3--------------------1---------------3------------|
G|--2-----------2--------------------2---------------2------------|
D|--2--------------------------------3----------------------------|
A|-----------------------------------3----------------------------|
E|-----------------------------------1----------------------------|

  There Will Be Days Of Peace You'll Never Have The Time.

Chorus:
[ Tab from: http://www.guitartabs.cc/tabs/m/my_morning_jacket/i_will_be_there_when_you_die_tab.html ]
e|----------------1-------------------1-------1----------------------------|
B|--1-------------1-------------------3-------1--------------------1-------|
G|--0-------------2-------------------2-------2--------------------0-------|
D|--2-------------3---------------------------3--------------------2-------|
A|--3-------------3---------------------------3--------------------3-------|
E|----------------1---------------------------1----------------------------|

  As Long As You Keep A Straight Face, I Will Be There When You Die.

e|----------------1--------------------1-------1-------------------------1-|
B|-1--------------1--------------------3-------1-------------------1-----3-|
G|-0--------------2--------------------2-------2-------------------0-----2-|
D|-2--------------3----------------------------3-------------------2-------|
A|-3--------------3----------------------------3-------------------3-------|
E|----------------1----------------------------1---------------------------|

   As Long As You Keep A Straight Face, I Will Be There When You Die.

Bridge 2:

e|--1-1-1---1---1--1----1-1----1--1----------|* Keep holding the F Chord,
B|--3-3---3-3---1----1--1---1--3~-1----------| just bring up the pinky to
G|--2-2-----2---2-------2---------2----------| play the vibrato note on 3.
D|--------------3-------3---------3----------|
A|-------------------------------------------|
E|-------------------------------------------|

^Back To Verse^

^The Bridge 1 & Chorus Again^

Outro:

e|----------1----1---1---------||-----1--------|* After Twice, End on these
B|---1------3----1---3---------||--1--3--------| chords
G|.--0------2----2---2--------.||--0--2--------|
D|.--2-----------3------------.||--2-----------|
A|---3-----------3-------------||--3-----------|
E|---------------1-------------||--------------|

  Oh_________________________


e|--1---3-1----------1-------3-1------------------------3~-------------|
B|--3~--1-1--1-------1-------1-1--------1----------1----1--1-----------|
G|--2---2-2--0-------2-------2-2--------0------------2-------2---------|
D|--3---3-3--2-------3-------3-3--------2--------3---------------------|
A|-----------3--------------------------3------------------------------|
E|---------------------------------------------------------------------|

               I will be there when you die....

e|-------3-1-x---------3-1-------1-3----3----3----3----3-----3--3-3---3-3--|
B|--3~---1-1-x-1-1--3~-1-1-1-1---1---1----1---------1----1------1---1-----1|
G|--2------------0--2--------0---2-----2----2---2-----2----2----2-----2----|
D|--3----3-3-x---2--3--3-3---2---3--------------3---------------3----------|
A|-------------3-3---------3-3---------------------------------------------|
E|-------------------------------------------------------------------------|

e|-------3-----3------3---------|
B|---------------1------1--1----|  END
G|-----2------------2------0----|
D|---------/3--------------2----|
A|-------------------------3----|
E|------------------------------|
                          * Let Ring


* Remember there is no one official recording of this tab so just have fun with this 
it sounds cool if played properly!


| /  slide up
| ~  vibrato
| x  Mute note
============================================================================