My Life With The Thrill Kill Kult - Blue Buddha Chords & Tabs

 

Blue Buddha Chords & Tabs

My Life With The Thrill Kill Kult Chords & Tabs

Version: 2 Type: Bass Tab 0 ratings
1 star 2 stars 3 stars 4 stars 5 stars
comments

Blue Buddha Bass Tab

Blue Buddha
by: My Life with the Thrill Kill Kult
off the album: 13 Above the Night 
as tabbed by: I suck at bass and i am a loser
who's e-mail address happens to be: starmartyr_444@yahoo.com
[ Tab from: http://www.guitartabs.cc/tabs/m/my_life_with_the_thrill_kill_kult/blue_buddha_btab_ver_2.html ]
first part:(give me money)
G----------------------------------|----------------------------------
D----------------------------------|----------------------------------
A------------------5--------5--5h7-|------------------5--------5------
E---0---0--5-5--7-----7--7---------|---0---0--5-5--7-----7--7---------
    (pick these notes to make a sound)     Q      __
second part:(give me hookerz):P                  | |
G-----------------------------------|   -=========\ \=\
D----------------------------------.|-=========        ======= +
A------------------5--------5--5h7-.| -========        =======-|-
E---0---0--5-5--7-----7--7----------|     -===========/       / \
    (you can play these     s--s-slap
     notes with your mind)  s--s-slap

third part:(i like kake)
G-------------------------------------------/
D------7-5---5------------------------7-5---\
A----------7---7-7-5h7-5------------------7-/
E-5--5-------------------5-5--2-2-3-3-------\ where?


don't listen to the song to get the rhythm. if you do, you shouldn't 
really be playing bass anyway. bastards.

Ben Miller's mother looks and acts like a shaved gorrilla.

It's very nice and fun. Enjoy whit pogo dance.

sparkle? sparkle!? sparkle. f*** off.
Comments