My Life With The Thrill Kill Kult - A Daisy Chain 4 Satan Chords & Tabs

 

A Daisy Chain 4 Satan Chords & Tabs

My Life With The Thrill Kill Kult Chords & Tabs

Version: 3 Type: Bass Tab

A Daisy Chain 4 Satan Bass Tab

   
A DAISY CHAIN 4 SATAN
My Life With The Thrill Kill Kult

Taken from the Rykodisc album My Life With The Thrill Kill Kult (1987/2004 Reissue)

Transcribed by: Damian Pamminger (TwitcheD_85@hotmail.com)

Standard tuning: E A D G

This is the original version of the song. It's the remix version that appears on Confessions
Of A Knife where the bass actually has a different pitch than the original.
In Fig. 1c - ending 2, this is the very end of the song where the track plays backwards for a
few seconds.

Fig. 1a
|-------|---------|
|---2---|---pause-|
|-2---2-|-4-------|
|-------|---------|
[ Tab from: http://www.guitartabs.cc/tabs/m/my_life_with_the_thrill_kill_kult/a_daisy_chain_4_satan_btab_ver_3.html ]
Fig. 1b
|-------|-------------------------------------------------------------|
|---2---|-----------------------------------4-4-4-4-4-4-4-4-4-4-4-4-4-|
|-2---2-|-4-4-4-4-4-4-4-4-2-2-2-2-2-2-2-2-----------------------------|
|-------|-------------------------------------------------------------|

Fig. 1c
ending 1
|-------|---------------------------------------------------|---------------|
|---2---|-----------------------------------4-4-4-4-4-4-4-4-|-4--4--4---2---|
|-2---2-|-4-4-4-4-4-4-4-4-2-2-2-2-2-2-2-2-------------------|-------------2-|
|-------|---------------------------------------------------|---------------|

ending 2
|---------------------------------------------------|
|------------------------------------2--4-4-4-4-4-4-|
|-2-2-2-2-2-2-2-2-4-4-4-4-4-4-4-4-2--2--------------|
|---------------------------------------------------|