My Dying Bride - Your Shameful Heaven Chords & Tabs

 

Your Shameful Heaven Chords & Tabs

My Dying Bride Chords & Tabs

Version: 1 Type: Bass Tab 0 ratings
1 star 2 stars 3 stars 4 stars 5 stars
comments

Your Shameful Heaven Bass Tab

tune down

E |---------------------------|
B |o-------------------------o|
G#|o-------------------------o|
C#|--0---1---0---1-43-434p31--|



E |---------------------------------------------|
B |o---5--------------------5------------------o|
G#|o-----56---------5---------56---------5-----o|
C#|--3------3-6---6-----6-3------3-6---6-----6--|


E |----------------------------------------------------------------|
B |o--------------------------------------------------------------o|
G#|o->----------->->->------------>->-55555555555555555-3-2-0-----o|
C#|--0-00000000001-3-0-000000000003-4-------------------------3-2--|


E |---------------------------|
B |o-------------------------o|
G#|o-------------------------o|
C#|--0---1---0---1-43-434p31--|

[ Tab from: http://www.guitartabs.cc/tabs/m/my_dying_bride/your_shameful_heaven_btab.html ]
E |------------------------|
B |o----------------------o|
G#|o----------------------o|
C#|--5-5-55h68p65h65-4-43--|


E |---------------------------------------------|
B |o---5--------------------5------------------o|
G#|o-----56---------5---------56---------5-----o|
C#|--3------3-6---6-----6-3------3-6---6-----6--|


E |----------------------------------------------------------------|
B |o--------------------------------------------------------------o|
G#|o----------------------------------55555555555555555-3-2-0-----o|
C#|--0-00000000001-3-0-000000000003-4-------------------------3-2--|
   

E |---------------------------------------------------------------------|
B |---------------------------------------------------------------------|
G#|----------------------------------55555555555555555-3-2-0----------.-|
C#|-0-00000000001-3-0-000000000003-4-------------------------3-(3)--2-0-|
Comments