My Dying Bride - Vast Choirs Chords & Tabs

 

Vast Choirs Chords & Tabs

My Dying Bride Chords & Tabs

Version: 1 Type: Tab 0 ratings
1 star 2 stars 3 stars 4 stars 5 stars
comments

Vast Choirs Tab

Tabbed by:THE SANDMAN
Email:ryan5@iamwasted.com


Riff 1
Db|-------------------------------------||
Ab|-------------------------------------||
Fb|-------------------------------------||
Cb|-------------------------------------||
Gb|----------------3"----------1"-------||
Db|----0"--5"--4"------3"--2"-----1"----||


Riff 2
Db|-------------------------------------||
Ab|-------------------------------------||
Fb|-------------------------------------||
Cb|--------4-------3-------4-------3----||
Gb|----2-3-2-3-4-3-1-3-2-3-2-3-4-3-1----||
Db|----0-1---1-2-1---1-0-1---1-2-1------||


Riff 3
Db|---------------------------------------||
Ab|---------------------------------------||
Fb|---------------------------------------||
Cb|--------4-------3-------4--------------||
Gb|----2-3-2-3-4-3-1-3-2-3-2-3-4-3-5-4----||
Db|----0-1---1-2-1---1-0-1---1-2-1-3-2----||



Riff 4 
Db|----------------------------------------||
Ab|----------------------------------------||
Fb|----------------------------------------||
Cb|----5----3----2---------4-----3----2----||
Gb|----5----3----2---------2-----1----2----||
Db|----3----1----0--------[2]---[1]---0----||

Riff 5 
Db|-----------------------------------------||
Ab|-----------------------------------------||
Fb|-----------------------------------------||
Cb|----5----3----2~--------4-----3----2~----||
Gb|----3----1----2~--------2-----1----2~----||
Db|---[3]--[1]---0~-------[2]---[1]---0~----||

Riff 6
Db|-------------------------------------------------------------------||
Ab|-------------------------------------------------------------------||
Fb|-------------------------------------------------------------------||
Cb|----5----3----2~--------4-----3----2-------------------------------||
Gb|----3----1----2~--------2-----1----2-2--2-2-2--2-2-2--2-2-2-2-2----||
Db|---[3]--[1]---0~-------[2]---[1]---0-0--0-0-0--0-0-0--0-0-0-0-0----||
                                      . .  . . .  . . .  . . . . .


Riff 7a
Db|-----------------------||
Ab|-----------------------||
Fb|-----------------------||
Cb|-----------------------||
Gb|--------------2"-3"----||
Db|----0"-----------------||


Riff7b
Db|----------------------||
Ab|----------------------||
Fb|----------------------||
Cb|--------------4--5----||
Gb|--------------2--3----||
Db|----0"----------------||

[ Tab from: http://www.guitartabs.cc/tabs/m/my_dying_bride/vast_choirs_tab.html ]
Riff 8
Db|------------------------------||
Ab|------------------------------||
Fb|------------------------------||
Cb|----------7--8--------8--9----||
Gb|----8--7--5--6--8--9--6--7----||
Db|----6--5--------6--7----------||
       .  .  .  .  .  .  .  .


Riff 9 
Db|-----------------------||
Ab|-----------------------||
Fb|-----------------------||
Cb|--------7-8-----8-9----||
Gb|----8-7-5-6-8-9-6-7----||
Db|----6-5-----6-7--------||


Riff 10 
Db|-------------------------------------------------------------||
Ab|-------------------------------------------------------------||
Fb|-------------------------------------------------------------||
Cb|-------------------------------------------------------------||
Gb|----6"--------------------4"---6"----------------------------||
Db|--------7"--6"--4"----6"------------7"--6"--4"---0"-2"-0"----||


Riff 11
Db|--------------------------------------||
Ab|--------------------------------------||
Fb|--------------------------------------||
Cb|----------2--------1------------------||
Gb|-------2--------1-------6--5--4--3----||
Db|----0--------0----------4--3--2--1----||
                           .  .  .  .


Riff 12 
Db|---------------------------------------------------------------||
Ab|---------------------------------------------------------------||
Fb|---------------------------------------------------------------||
Cb|-----------------------7-8--------------6-7--------------ph----||
Gb|------------5----------5-6--------------4-5----6-7--------3----||
Db|----0"------3--0"----------0"---------------0"-4-5-0"-2-3------||
                                                         . .

Riff 13
Db|--------------------------------------------------------||
Ab|--------------------------------------------------------||
Fb|--------------------------------------------------------||
Cb|----------------------------------ph--------------------||
Gb|----2-2-2-2--5-4-5-7--2-2-2-2------3--2-2-2-2--5-4-3----||
Db|----0-0-0-0--3-2-3-5--0-0-0-0--3-2----0-0-0-0--3-2-1----||
       . . . .           . . . .         . . . .  . .


Riff 14
Db|---------------------------------------------------------------||
Ab|---------------------------------------------------------------||
Fb|---------------------------------------------------------------||
Cb|---------------------------------------------------------------||
Gb|----8---/8--7---3--2----2-2-2-2-6(tr7)-5(tr6)-4(tr5)-3(tr4)----||
Db|----6---/6--5---1--0----0-0-0-0--------------------------------||
                           . . . .


Ending Riff
Db|------------------------||
Ab|------------------------||
Fb|------------------------||
Cb|------------------------||
Gb|----8---/8--7---3--2----||
Db|----6---/6--5---1--0----||
Comments