My Dying Bride - Two Winters Only Chords & Tabs

 

Two Winters Only Chords & Tabs

My Dying Bride Chords & Tabs

Version: 2 Type: Tab 0 ratings
1 star 2 stars 3 stars 4 stars 5 stars
comments

Two Winters Only Tab

   
My Dying Bride - Two Winters Only
Transcribed by Rodrigo Araujo

Tuned down a step - D G C F a D

Riff 1
1st Guitar
-------------------------------------------------------------|
-------------------------------------------------------------|
-------------------------------------------------------------|
-------11----9---------11------------------------------------|
----11----11---11---11----11-9-11-12-11----------------------|
--9---------------9------------------------------------------|

-------------------------------------------------------------|
-------------------------------------------------------------|
-------------------------------------------------------------|
------7-----7---------7-----7--------------------------------|
----7---7-----7-----7---7-----7------------------------------|
--5-------5-----5-5-------5-----5----------------------------|

-------------------------------------------------------------|
-------------------------------------------------------------|
-------------------------------------------------------------|
------9-----9---------9-----9--------------------------------|
----9---9-----9-----9---9-----9------------------------------|
--7-------7-----7-7-------7-----7----------------------------|

2nd Guitar
-------------------------------------------------------------|
-------------------------------------------------------------|
--6--8--8/9--9/11--9--8--6----6--8--9--8----9p8--9--8--------|
-------------------------------------------------------------|
-------------------------------------------------------------|
-------------------------------------------------------------|

-------------------------------------------------------------|
-------------------------------------------------------------|
--8--9--11--9--8------8--9--8-----------6--8--9/11--9--8--6--|
------------------11-----------11--7-------------------------|
-------------------------------------------------------------|
-------------------------------------------------------------|
[ Tab from: http://www.guitartabs.cc/tabs/m/my_dying_bride/two_winters_only_tab_ver_2.html ]
-------------------------------------------------------------|
-------------------------------------------------------------|
-------------------------------------------------------------|
-9--7--9-----------------------------------------------------|
------------7--9--7--6-7-6----6--7--9--7--6----4-------------|
-------------------------------------------------------------|

Riff 2
1st Guitar                           .  .
-------------------------------------------------------------|
-------------------------------------------------------------|
-------------------------------------------------------------|
--6---2---9---8---9p8-----6---2---9--8--4--6-----------------|
--6---2---9---8---9p8-----6---2---9--8--4--6-----------------|
--4---0---7---6---7p6-----4---0---7--6--2--4-----------------|

2nd Guitar
--16--19p18--------------------------------------------------|
-------------19--17--16--14--12--14--16--17--16--17b--16-----|
-------------------------------------------------------------|
-------------------------------------------------------------|
-------------------------------------------------------------|
-------------------------------------------------------------|

---------16--15--16/19p18--19p18-----------------------------|
-14--12---------------------------19--17--16--14--12--14--16-|
-------------------------------------------------------------|
-------------------------------------------------------------|
-------------------------------------------------------------|
-------------------------------------------------------------|

--------------------------16--15--16-------------------------|
-17--16--17b--16--14--12-------------------------------------|
-------------------------------------------------------------|
-------------------------------------------------------------|
-------------------------------------------------------------|
-------------------------------------------------------------|

Riff 3
1st Guitar               . .        .
-------------------------------------------------------------|
-------------------------------------------------------------|
-------------------------------------------------------------|
--2---4---5---7---9---7--7-7--9--7--7--9--7------------------|
--2---4---5---7---9---7--7-7--9--7--7--9--7------------------|
--0---2---3---5---7---5--5-5--7--5--5--7--5------------------|

2nd Guitar
-------------------------------------------------------------|
-------------------------------------------------------------|
-------------------------------------------------------------|
--2--4--5--7--9--7--9-7--9-7---2--4h5p4--5--4--2--4h5-4--2---|
-------------------------------------------------------------|
-------------------------------------------------------------|

b - bend
/ - slide
p - pull off
h - hammer
. - palm mute
Comments