My Dying Bride - Two Winters Only Chords & Tabs

 

Two Winters Only Chords & Tabs

My Dying Bride Chords & Tabs

Version: 1 Type: Bass Tab 0 ratings
1 star 2 stars 3 stars 4 stars 5 stars
comments

Two Winters Only Bass Tab

Tune down

E |----------------------------------------|
B |o-----------------5h7---------5---------|
G#|o-5-(5)---3-5-(5)-----5-5-(5)---5-5-(5)-|
C#|--------5-------------------------------|


E |------------------------------|---------|
B |--------3--------------------o|---------|
G#|-1-(1)----1-1-(1)-1/3---(3)--o|-5---(5)-|
C#|------------------------------|---------|


E |----------------------|------------------------|
B |o---------------------|---------------------o--|
G#|o-0--0-8--83--3-2--3-|-0--0-7--73---3-2-0-o----|
C#|----------------------|------------------------|
[ Tab from: http://www.guitartabs.cc/tabs/m/my_dying_bride/two_winters_only_btab.html ]
E |----------------------------------------|
B |o-----------------5h7---------5---------|
G#|o-5-(5)---3-5-(5)-----5-5-(5)---5-5-(5)-|
C#|--------5-------------------------------|


E |------------------------------|---------|
B |--------3--------------------o|---------|
G#|-1-(1)----1-1-(1)-1/3---(3)--o|-5---(5)-|
C#|------------------------------|---------|

x4
E |--------------------------|----------------------------|
B |o------------------------o|----------------------------|
G#|o------------------------o|--------------------->>-----|
C#|--1-1-1-6-8-6^×66-8-6-8-6--|-1-----(1)-1-----(1)-33---|
						    .

E |----------------------|------------------------|
B |o---------------------|---------------------o--|
G#|o-0--0-8--83--3-2--3-|-0--0-7--73---3-2-0-o----|
C#|----------------------|------------------------|
Comments