My Dying Bride - Scarlet Garden Chords & Tabs

 

Scarlet Garden Chords & Tabs

My Dying Bride Chords & Tabs

Version: 1 Type: Tab 0 ratings
1 star 2 stars 3 stars 4 stars 5 stars
comments

Scarlet Garden Tab

   
Band:     My Dying Bride
Song:     The Scarlet Garden
Album:    Songs Of Darkness, Words Of Light

Tabbed by Liam Cooke (email: bones_lc@hotmail.com)
Visit www.boxofjunk.net for more tabs.

pm - palm mute
// - repeat last bit


Tune your guitar to C# (C# F# B E G# C#).


RIFF 1 - INTRO
                   x8                               x8
|--------------------||---------||--------------------||
|--------------------||---------||--------------------||
|--------------------||---------||--------------------||
|----4---4-5---------||---------||----4---4-5---------||
|--2---2-----3-2-----||2--------||--2---2-----3-2-----||
|0---------------3-2-||0--------||0---------------3-2-||

                   x8
|--------------------||---------||
|--------------------||---------||
|--------------------||---------||
|----4---4-5---------||---------||
|--2---2-----3-2-----||2--------||
|0---------------3-2-||0--------||
 pm_   pm    pm_____

RIFF 2
                                                                x6
|------------------------------------------------|----------------||
|------------------------------------------------|----------------||
|------------------------------------------------|----------------||
|----5---5---4---4---2---2---2---1---1---1---1---|1-2-2---2-5-5-4-||
|--2---2---2---2---2---2---2---2---2---2---2---2-|2-3-3---3-6-6-5-||
|0-----------------------------------------------|----------------||
[ Tab from: http://www.guitartabs.cc/tabs/m/my_dying_bride/scarlet_garden_tab.html ]
RIFF 3A
                                                                  x4
|----------------|----------------|----------------|----------------||
|----------------|----------------|----------------|----------------||
|----------------|----------------|----------------|----------------||
|----------------|----------------|----------------|----------------||
|2-----------2-3-|7-6-6---2-3-3---|0-------0-----0-|0-2-2---3---3---||
|----------------|----------------|1-------1-----1-|1-3-3---1---1---||

RIFF 3B
NOTE: When playing this riff for the 2nd time and 6th time, replace
the last bar with Riff 3C. (it's easier than it sounds :-)
                                                                  x6
|----------------|----------------|----------------|----------------||
|----------------|----------------|----------------|----------------||
|----------------|----------------|----------------|----------------||
|----------------|----------------|----------------|----------------||
|2222222222222233|77666--622333333|0000000000000000|0022222233333333||
|000000000000----|----------------|1111111111111111|1133333311111111||

RIFF 3C

|----------------||
|----------------||
|----------------||
|----------------||
|3---3---3---3---||
|1---1---1---1---||

(Play RIFF 2)

RIFF 4
                       x2
|------------------------||----------------||
|------------------------||----------------||
|------------------------||----------------||
|5-----4-----2---2-1-----||1-2-2---2-5-5-4-||
|--------------2---------||2-3-3---3-6-6-5-||
|------------------------||----------------||

(Play RIFF 2 x8)

|----------------||
|----------------||
|----------------||
|2---------------||
|2---------------||
|----------------||
Comments