My Dying Bride - Return To The Beautiful Chords & Tabs

 

Return To The Beautiful Chords & Tabs

My Dying Bride Chords & Tabs

Version: 1 Type: Tab 0 ratings
1 star 2 stars 3 stars 4 stars 5 stars
comments

Return To The Beautiful Tab

Artist: My Dying Bride
Song:   Return To The Beautiful
Album:  The Dreadful Hours

Tabbed for 6 string guitar by Joe (deadkidsongsUK@AOL.com)

C# Tuning.		Key

		~~~    Hold Note
		PM...  Palm Mute
		p      Pull Off
		h      Hammer On
		/      Slide Up	
		\      Slide Down
		^^^    Bend

Riff 1: 

(1) Guitars 1 & 2, full distortion

    1       2       3       4         1       2       3       4       
c#:---------------------------------|---------------------------------|
G#:---------PM......----------------|---------------------------------|
E :---------------------------------|---------------------------------|
B :-----------------2~~~~~~~3~~~~~~~|~~~~~~~~~~~~~~~~~~~~~~~~~~~~~~~~~|
F#:-2~~~~~~~2---2---0~~~~~~~1~~~~~~~|~~~~~~~~~~~~~~~~~~~~~~~~~~~~~~~~~|
C#:-0~~~~~~~0---0-------------------|---------------------------------|

(2) Guitars 1 & 2, full distortion

    1       2       3       4         1       2       3       4       
c#:---------------------------------|---------------------------------|
G#:-----PM..........----------------|---------------------------------|
E :---------------------------------|---------------------------------|
B :-----------------2~~~~~~~3~~~~~~~|~~~~~~~~~~~~~~~~~~~~~~~~~~~~~~~~~|
F#:-2---2---2---2---0~~~~~~~1~~~~~~~|~~~~~~~~~~~~~~~~~~~~~~~~~~~~~~~~~|
C#:-0---0---0---0-------------------|---------------------------------|


Riff 2:

(3) Guitars 1 & 2, full distortion

    1       2       3       4         1       2       3       4       
c#:---------------------------------|---------------------------------|
G#:---------------------------------|---------------------------------|
E :---------------------------------|---------------------------------|
B :---------------------------------|---------------------------------|
F#:-3~~~~~~~~~~~~~~/5~~~~~~/8-~~~~~~|\7~~~~~~~~~~~~~~~7~~~~~~~~~~~~~~~|
C#:---------------------------------|---------------------------------|

    1       2       3       4         1       2       3       4       
c#:---------------------------------|---------------------------------|
G#:---------------------------------|---------PM......----------------|
E :---------------------------------|---------------------------------|
B :--p-h----------------------------|-2~~~~~~~2~~~--------------------|
F#:-3-2-3~~~~~~~~~~/5~~~~~~\1~~~~~~~|-0~~~~~~~0~~~5~~~3~~~~~~~~~~~~~~~|
C#:---------------------------------|-------------3~~~1~~~~~~~~~~~~~~~|


Riff 3: 

(4) Guitars 1 & 2, fully distorted

    1       2       3       4         1       2       3       4       
c#:---------------------------------|---------------------------------|
G#:-PM......------------------------|---------------------------------|
E :---------------------------------|---------------------------------|
B :-7---6---4~~~~~~~~~~~~~~~7~~~6~~~|---------4~~~~~~~5~~~~~~~3~~~~~~~|
F#:-5---4---2~~~~~~~~~~~~~~~5~~~4~~~|~~~~~~~~~2~~~~~~~3~~~~~~~1~~~~~~~|
C#:-5---4---2---------------5---4---|---------2-------3-------1-------|

(5) Guitars 1 & 2, fully distorted (Not 100% on this bit)

    1       2       3       4         
c#:---------------------------------|
G#:-PM......----------------PM......|
E :---------------------------------|
B :-7---6---2---5---7---8---4---4---|
F#:-5---4---2---3---5---6---2---2---|
C#:-5---4-------------------2---2---|


Riff 4:

(6) Guitar 1, full distortion

    1       2       3       4         1       2       3       4       
c#:---------------------------------|---------------------------------|
G#:---------------------------------|---------------------------------|
E :---------------------------------|---------------------------------|
B :-5~~~~~~~~~~~~~~~4~~~~~~/7~~~~~~~|---------------------------------|
F#:---------------------------------|-6~~~~~~~~~~~~~~~~~~~~~~~~~~~~~~~|
C#:---------------------------------|---------------------------------|

    1       2       3       4         1       2       3       4       
c#:---------------------------------|---------------------------------|
G#:---------------------------------|---------------------------------|
E :---------------------------------|---------------------------------|
B :-5~~~~~~~~~~~~~~~4~~~~~~/7~~~~~~~|-8~~~~~~~~~~~~~~~~~~~~~~~~~~~~~~~|
F#:---------------------------------|---------------------------------|
C#:---------------------------------|---------------------------------|

(7) Guitar 2, full distortion

    1       2       3       4         1       2       3       4       
c#:---------------------------------|---------------------------------|
G#:---------------------------------|-------------------------PM......|
E :---------------------------------|---------------------------------|
B :-5~~~~~~~~~~~~~~~~~~~~~~~~~~~~~~~|~~~~~~~~~4---5---7---8---4---4---|
F#:-3~~~~~~~~~~~~~~~~~~~~~~~~~~~~~~~|~~~~~~~~~2---3---5---6---2---2---|
C#:-3~~~~~~~~~~~~~~~~~~~~~~~~~~~~~~~|~~~~~~~~~2---3---5---6---2---2---|



Riff 5:

(8) Guitars 1 & 2, fully distorted
[ Tab from: http://www.guitartabs.cc/tabs/m/my_dying_bride/return_to_the_beautiful_tab.html ]
    1       2       3       4         1       2       3       4       
c#:---------------------------------|---------------------------------|
G#:---------------------------------|---------------------------------|
E :---------------------------------|---------------------------------|
B :---------------------------------|-----------------8^^^^^^^^~~~~~~\|
F#:-5~~~~~~~~~~~~~~~4~~~~~~~~~~~~~~~|-7-------7~~~~~~~~~~~~~~~-------\|
C#:-3~~~~~~~~~~~~~~~2~~~~~~~~~~~~~~~|-5~~~~~~~~~~~~~~~---------------\|


Riff 6:

(9) Guitars 1 & 2, fully distorted (Not 100% on this bit)

    1       2       3       4         1       2       3       4       
c#:---------------------------------|---------------------------------|
G#:-----PM..........----------------|------PM.........----------------|
E :---------------------------------|---------------------------------|
B :-3---2---2---2---5---4---7---3---|-3---2---2---2---5---4---7---5---|
F#:-3---2---2---2---5---4---7---1---|-3---2---2---2---5---4---7---5---|
C#:-1---0---0---0---3---2---5---1---|-1---0---0---0---3---2---5---3---|





Riff 7:

(10) Guitar 2, full distortion


    1       2       3       4         1       2       3       4       
c#:---------------------------------|---------------------------------|
G#:---------------------------------|---------------------------------|
E :---------------------------------|---------------------------------|
B :---------8~~~~~~~7~~~~~~~5~~~~~~~|~--------8~~~~~~~7~~~~~~~10~~~~~~|
F#:-5~~~~~~~------------------------|-7~~~~~~~------------------------|
C#:---------------------------------|---------------------------------|

(11) Guitar 1, full distortion
							      
    1       2       3       4         1       2       3       4       
c#:---------------------------------|---------------------------------|
G#:---------------------------------|---------------------------------|
E :---------------------------------|---------------------------------|
B :---------8~~~~~~~7~~~~~~~~~~~~~~~|---------------------------------|
F#:-5~~~~~~~------------------------|-3~~~~~~~~~~~~~~~5~~~~~~~6~~~~~~~|
C#:---------------------------------|---------------------------------|

(12) Guitars 1 & 2, fully distorted

    1       2       3       4         1       2       3       4       
c#:---------------------------------|---------------------------------|
G#:---------------------------------|-Fades into feedback-------------|
E :---------------------------------|---------------------------------|
B :---------------------------------|---------------------------------|
F#:-7-7-7-7-7-7-7-7-7-7-7-7-7-7-7-7-|-7~~~~~~~~~~~~~~~~~~~~~~~~~~~~~~~|
C#:-0-0-0-0-0-0-0-0-0-0-0-0-0-0-0-0-|-0~~~~~~~~~~~~~~~~~~~~~~~~~~~~~~~|


Riff 8:

(13) Guitars 1 & 2, fully distorted

    1       2       3       4         1       2       3       4       
c#:---------------------------------|---------------------------------|
G#:---------------------------------|---------------------------------|
E :---------------------------------|---------------------------------|
B :---------------------------------|---------------------------------|
F#:-----------------5-5-5-5---------|-----------------7-7-7-7---------|
C#:-6-6-6-6-6-6-6-6---------6-6-6-6-|-5-5-5-5-5-5-5-5---------5-5-5-5-|


Riff 9:

(14) Guitars 1 & 2, fully distorted


    1       2       3       4         1       2       3       4       
c#:---------------------------------|---------------------------------|
G#:---------------------------------|---------------------------------|
E :---------------------------------|---------------------------------|
B :---------------------------------|---------------------------------|
F#:-----------------6-6-6-6-5-5-5-5-|---------------------------------|
C#:-3-3-3-3-0-0-0-0-----------------|-6-6-6-6-8-8-8-8-6-6-6-6-5-5-5-5-|


End:
(15) Guitars 1 & 2, fully distorted

    1       2       3       4           
c#:---------------------------------|
G#:-----PM......--------------------|
E :---------------------------------|
B :-3---2---2-----------------------|
F#:-3---2---2-----------------------|
C#:-1---0---0-----------------------|



Structure:

Guitar 1			Guitar 2

Riff 1 (0:01)			Riff 1 (0:01)
(1)   x   6			(1)   x   6
(2)   x   1			(2)   x   1
(1)   x   3			(1)   x   3
(2)   x   1			(2)   x   1
(1)   x   1			(1)   x   1

Riff 2 (1:07) 			Riff 2 (1:07)
(3)   x	  6			(3)   x   6		

Riff 1 (2:11)			Riff 1 (2:11)
(1)   x   2			(1)   x   2
(2)   x   1  			(2)   x   1  			
(1)   x   3			(1)   x   1
(2)   x   1			(2)   x   1
(1)   x   3			(1)   x   3
(2)   x   1			(2)   x   1
(1)   x   3			(1)   x   3

(Rest)				(Rest)

Riff 3 (3:30)			Riff 3 (3:30)
(4)   x   8			(4)   x   8
(5)   x   1                     (5)   x   1

Riff 4 (4:14)			Riff 4 (4:14)
(6)   x   10			(7)   x   12
				(6)   x   8 (First 2 bars only)
(slide down)			(slide down)

Riff 5 (5:56)			Riff 5 (5:56)
(8)   x   7			(8)   x   7

Riff 6 (7:31)			Riff 6 (7:31)
(9)   x   4			(9)   x   4

Riff 7 (7:52)			Riff 7 (7:52)
(10)  x   17			(11)  x   17
(12)  x   1			(12)  x   1

(Rest)				(Rest)
	Right Beside The Rhythm

Riff 8 (10:51)			Riff 8 (10:51)
(13)  x   4			(13)  x   4
(Rest)				(Rest)
(13)  x   9			(13)  x   9

(Rest)				(Rest)

Riff 9 (11:44)			Riff 9 (11:44)
(14)  x   12			(14)  x   12

Riff 5 (12:17)			Riff 5 (12:17)
(8)   x   7			(8)   x   7

Riff 6 (13:53)			Riff 6 (13:53)
(9)   x   4			(9)   x   4
(15)  x   1			(15)  x   1

End (14:21)			End (14:21)

This is my second MDB tab, more to come (Requests: deadkidsongsUK@AOL.com)
Comments