My Dying Bride - For You Chords & Tabs

 

For You Chords & Tabs

My Dying Bride Chords & Tabs

Version: 1 Type: Tab 0 ratings
1 star 2 stars 3 stars 4 stars 5 stars
comments

For You Tab

   
~-My Dying Bride-~
--For You--



Tuning is down 1+1/2 steps
Low to High: C# F# B E G# C#
Time Signature: 3/4
G-1 is Lead Guitar
G-2 is Rhythm Guitar
Transcriber: Tom Colvin (ManWithTheDogs)

Hello all MDB fans! I wanted to make a contribution to The 's Metal
Community and i figured a tab would do the trick. This is my favorite MDB
tune and when i decided to learn it i was shocked and appalled by the only
"For You" tab available.  It's horrendous!!  This tab is much better and
it's complete.  It's also the first song i've ever tabbed out so i hope i
didn't mess anything up. I won't bother with tabbing out palm muting when 
it's
a simple song like this, you should easily be able to hear it for yourself.
If you have anything you would like to say to me, feel free to email me at 
DBYHTG@hotmail.com  Thanks!


As far as this riff goes, i slide from note to note because i think
   it sounds better and fits the tone of the song.  Im not sure if that
   is how it is actually played.  I leave the decision up to you...
G-1 Riff 1.1                                                     x4
|-------------------------------------------------------------------|
|-------------------------------------------------------------------|
|-------------------------------------------------------------------|
|-------------------------------------------------------------------|
|----7-10---9-7---5-7---5-4---2-4~~---7-10---9-7---5-7---5-4---2-4~~|
|--0------0-----0-----0-----0-------0------0-----0-----0-----0------|
|
|G-2 Riff 1.2
|-------------------------------------------------------------------|
|-------------------------------------------------------------------|
|-------------------------------------------------------------------|
|--9----------------------------------------------------------------|
|--7------------------------9-------10----------------------/10-----|
|--0------------------------7-------8-------------------------------|

Note:  On 1.2 only play the low C# on the first and fourth time.

G-1 Fill 1.1
|---------------|
|---------------|
|---------------|
|---------------|
|-(2)-----------|
|-(0)-----------|
|
|G-2 Fill 1.1 x8
|---------------|
|---------------|
|------9---9----|
|----9---9---9--|
|--7------------|
|---------------|


G-1 Melody 1.1
|---------------------------------------------------|
|---------------------------------------------------|
|---------------------------------------------------|
|---------------------------------------------------|
|--7~~---------7~~---------7~~---------7~~----------|
|---------------------------------------------------|

Melody 1.2
|---------------------------------------------------|
|---------------------------------------------------|
|---h-----------------------------------------------|
|--7-9-9~~-----9\7-7~~-----7\5-5~~-----5\4-4~~------|
|---------------------------------------------------|
|---------------------------------------------------|

Melody 1.3
|---------------------------------------------------|
|---------------------------------------------------|
|---------------------------------------------------|
|---------------------------------------------------|
|--7~~-----7---9~~-----9---10--12--10--9-----10-9~~-|
|---------------------------------------------------|

Melody 1.4
|---------------------------------------------------|
|---------------------------------------------------|
|---------------------------------------------------|
|---------------------------------------------------|
|--7~~-----7---9~~-----9--10\9-7---5---5/7-7~~------|
|---------------------------------------------------|

Melody 1.3 again

Melody 1.4 again

Melody 1.1 again - Only strike the note once and hold
                      it for four bars (this time only)
Melody 1.2 again

G-2 Riff 2 under Melody 1                        x8
|---------------------------------------------------|
|---------------------------------------------------|
|------9---9-------------------7---7-------5---5----|
|----9---9---9-----9---9-----7---7---7---5---5---5--|
|--7-------------9---9---9-5-----------3------------|
|--------------7------------------------------------|


[ Tab from: http://www.guitartabs.cc/tabs/m/my_dying_bride/for_you_tab.html ]
G-1 Fill 2.1
|---------------------------------------------------|
|---------------------------------------------------|
|---------------------------------------------------|
|---------------------------------------------------|
|--7~~--------------------10---9---7---5/7-7~~------|
|---------------------------------------------------|
|
|G-2 Fill 2.2
|---------------------------------------------------|
|---------------------------------------------------|
|------9---9-------9---9-------9---9-------9---9----|
|----9---9---9---9---9---9---9---9---9---9---9---9--|
|--7-----------7-----------7-----------7------------|
|---------------------------------------------------|


The song moves into 4/4 time for this part

G-1 Melody 2
|-12~~--10~~-8~~-------------------------|
|---------------12~~------------8~~------|
|--------------------9~~---9-11----9-11~~|
|----------------------------------------|
|----------------------------------------|
|----------------------------------------|

|-----------------/14~~15--14--14\10--10/12~~|
|-----10-12~~--/13---------------------------|
|--12----------------------------------------|
|--------------------------------------------|
|--------------------------------------------|
|--------------------------------------------|

|-12~~--10~~-8~~-------------------------|
|---------------12~~------------8~~------|
|--------------------9~~---9-11----9-11~~|
|----------------------------------------|
|----------------------------------------|
|----------------------------------------|

|-----------------/14~~--15~~--14~~--|
|-----10-12~~--/13-------------------|
|--12--------------------------------|
|------------------------------------|
|------------------------------------|
|------------------------------------|

G-2 Riff 3 under Melody 2                                               x2
|--------------------------------------------------------------------------|
|--------------------------------------------------------------------------|
|--------------------------------------------------------------------------|
|--------------------------------------------------------------------------|
|--2-----3-6-5--6-5--2-----3-6-5--6-5--4-----5-8-7--8-7--4-----5-8-7--8-7--|
|--0-----1-4-3--4-3--0-----1-4-3--4-3--2-----3-6-5--6-5--2-----3-6-5--6-5--|


And back to 3/4 time...

G-1 Fill 3.1
|--12~~---------------------------------------------|
|---------------------------------------------------|
|---------------------------------------------------|
|---------------------------------------------------|
|---------------------------------------------------|
|---------------------------------------------------|
|
|G-2 Fill 3.1
|---------------------------------------------------|
|---------------------------------------------------|
|------9---9-------9---9-------9---9-------9---9----|
|----9---9---9---9---9---9---9---9---9---9---9---9--|
|--7-----------7-----------7-----------7------------|
|---------------------------------------------------|

Now back to Riff 2 and Melody 1
Play Melody 1 through once
Then play Melody 1.1 again
Then play the following

Melody 1.5
|---------------------------------------------------|-----|
|---------------------------------------------------|-----|
|---------------------------------------------------|-----|
|-----------------------------/9--12--10-----9--10--|-*9~~|
|--7~~---------7~~---------7------------------------|-----|
|---------------------------------------------------|-----|

*Substitute this note for the first note of Melody 1.3
Play Melody 1.3
      Melody 1.4
      Melody 1.3
      Melody 1.4
      Melody 1.1 - Strike the note only once and hold it
      Melody 1.2
      Fill  2
      Riff 1 for the chorus
      Fill 3
      Riff 3 with the Melody 2
      Fill 3
      Riff 1 for Chorus

End with:
G-1 Outro
|---------------------------------------------------------|
|---------------------------------------------------------|
|---------------------------------------------------------|
|---------------------------------------------------------|
|-(2)-----------------------------------------------------|
|-(0)-----------------------------------------------------|
|
|G-2 Outro
|---------------------------------------------------------|
|---------------------------------------------------------|
|------9---9-------9---9-------9---9-------9---9-------9~~|
|----9---9---9---9---9---9---9---9---9---9---9---9---9----|
|--7-----------7-----------7-----------7-----------7------|
|---------------------------------------------------------|

"A stare is worth a thousand biting phrases, see how stupid you are"
                                          -Jello Biafra
Comments