My Dying Bride - Edenbeast Chords & Tabs

 

Edenbeast Chords & Tabs

My Dying Bride Chords & Tabs

Version: 1 Type: Tab 0 ratings
1 star 2 stars 3 stars 4 stars 5 stars
comments

Edenbeast Tab

   
Artist: My Dying Bride

Song: Edenbeast

Album: Light At The End Of The World

Tuning: 1 1/2 steps down: Db Gb B E Ab Db

Any problems or comments, email me at horsleymarcus@hotmail.com

Intro Riff Gtr.1
||------------------------------------------------------------------------|
||------------------------------------------------------------------------|
||------------------------------------------------------------------------|
||---------6-7-6---5~--------6-7-6-7-9-7-6-------------6-7-6-7-9-7-6-7-9~-|
||-7~--7-8---------------7-8---------------7-5~----7-8--------------------|
||------------------------------------------------------------------------|

|---------------------------||
|---------------------------||
|---------------------------||
|-9/12--12--10\9--9~--------||
|---------------------------||
|---------------------------||

Intro Riff Gtr.2 played when drums enter)
||-----------------|-----------------------------------------------|
||----play-2x------|-----------------------------------------------|
||-----------------|-----------------------------------------------|
||-2------7------4-|-2-----------------------------------------4---|
||-2------5------2-|-2----2-3-2-3-2---3-----2-3-2-3-2-3-5~-----2---|
||-0---------------|-0---------------------------------------------|

|-------------------------------||
|-------------------------------||
|-------------------------------||
|-2------------------------4----||
|-2-----2-3-2-3-2-3-5~-----2----||
|-0-----------------------------||

Verse Riff Gtr.1
||---------------------------------------------------------------------||
||---------------------------------------------------------------------||
||---------------------------------------------------------------------||
||-2-----9----9/10------7/9---10---9-2---7-6----------3--3/7-6~--------||
||-2-----7----7/8-------5/7---8----7-2-------8-7-5-7------------8-7----||
||-0----------------0------------------0-------------------------------||
pm                  .

Verse Riff Gtr.2 FIRST TIME ONLY
||-----------------------------------------------------------------||
||-----------------------------------------------------------------||
||-----------------------------------------------------------------||
||-2-----9---9/10-----7/9---10---9-2-------------------------------||
||-2-----7---7/8------5/7---8----7-2----------------5--5/8-7~------||
||-0----------------0------------------0---------------------------||
pm                  .
[ Tab from: http://www.guitartabs.cc/tabs/m/my_dying_bride/edenbeast_tab.html ]
Verse Riff Gtr.2 AFTER FIRST TIME
||------------------------------------------------------------------||
||------------------------------------------------------------------||
||------------------------------------------------------------------||
||-2------------------------------------3~---------------5--5/8-7~--||
||-2----------------------------------------------------------------||
||-0----------------------------------------------------------------||
                                            
Riff 3 Both Gtrs.
||----------------------------------------------------||
||----------------------------------------------------||
||----------------------------------------------------||
||-2-2---2-5-2-2---2-5-4-4---2h4-5---------------4/5--||
||-2-2---2-3-0-0---0-3-2-2---0h2-3-5-4---4/5-2/3------||
||-0-0---0-------------------------3-2---2/3----------||
                                                            
While Gtr.1 plays Intro again, Gtr.2 plays this riff
||---------------------------------||
||---------------------------------||
||---------------------------------||
||-2-----7-----4-----5--4--2~------||
||-2-----5-----2-------------------||
||-0-------------------------------||
                         
Bridge Riff Gtr.1
||------------------------------------||
||------------------------------------||
||------------------------------------||
||------------------------------------||
||-3~---1-3-4~---1~---1-4-3~---6p4p3--||
||------------------------------------||

Bridge Riff Gtr.2                                                            
||------------------------------------||
||------------------------------------||
||------------------------------------||
||-2~---0-2-3~---0~---0-3-2~---5p3p2--||
||------------------------------------||
||------------------------------------||

Chorus Riff Both Gtrs.
||--------------------------------------------------||
||--------------------------------------------------||
||--------------------------------------------------||
||--------------------------------------------------||
||-333333333333111333444444111111111111111444333643-||
||--------------------------------------------------||

After-Chorus Riff Both Gtrs
||-------------------------------||
||-------------------------------||
||-------------------------------||
||-5---3-5-6---3---3-6-5---------||
||-3---1-3-4---1---1-4-3--6p4p3--||
||-------------------------------||

Riff 7 Gtr.1
||--------------------------------------------------------||
||--------------------------------------------------------||
||--------------------------------------------------------||
||-2-------9-7-9-------5-------4-------2------------------||
||-2-----7-----------7-------5-------3---------3-------2--||
||-0-----------------------------------------5-------3----||

Riff 7 Gtr.2 (Probably solo)
||--------------------------------------------------------|
||--------------------------------------------------------|
||--------------------------------------------------------|
||-2---------------------------------------------------4--|
||-2-fade-out----------------------------------------5-2--|
||-0-------------------------------------------------3----|

|------------------------------------------------------------------|
|------------------------------------------------------------------|
|------------------------------------------------------------------|
|-2-------9-7-9-----10-9-7-9-10/12-12~-----5-5~-----5-7-9-10---9~--|
|-2-----7----------------------------------------------------------|
|-0----------------------------------------------------------------|

|-------------------------------------------------|
|-------------------------------------------------|
|-------------------------------------------------|
|-2-------9-7-9-----7--5--4--2~-----2-4-5--5--4~--|
|-2-----7-----------------------------------------|
|-0-----------------------------------------------|

|-----------------------------------|
|-----------------------------------|
|-----------------------------------|
|-2-------9-7-9-----5-7-5-4-5-7-7~--|
|-2-----7---------------------------|
|-0---------------------------------|

|------------------------------------------------------------------|
|------------------------------------------------------------------|
|------------------------------------------------------------------|
|-2-------9-7-9-----10-9-7-9-10/12-12~-----5-5~-----5-2-4-5-4-2-4--|
|-2-----7----------------------------------------------------------|
|-0----------------------------------------------------------------|

|--------------------------------------------|
|--------------------------------------------|
|--------------------------------------------|
|-3~-----2/4---4/5---5/7---------------5-4~--|
|--------------------------------------------|
|--------------------------------------------|

|-----------------------------------------------------------||
|-----------------------------------------------------------||
|-------------------12~-----11-12-11--9~--------------------||
|-2-------9-7-9------------------------------7-9-10-9-7-9~--||
|-2-----7---------------------------------------------------||
|-0---------------------------------------------------------||
Comments