My Dying Bride - Dreadful Hours Chords & Tabs

 

Dreadful Hours Chords & Tabs

My Dying Bride Chords & Tabs

Version: 1 Type: Bass Tab 0 ratings
1 star 2 stars 3 stars 4 stars 5 stars
comments

Dreadful Hours Bass Tab

   
tune down to C#-F#


----------------|
----------------|
----------------|
-6-5---1-1------|


--------------------------------|
--------------------------------|
-5---8---8---8------------------|
-----------------6-5---1-1------|


-----------|
-----------|
-----------|
-0-0-0-0-0-|


-------------------------|
-------------3-3-3-------|
-------------------3-3-5-|
-0-0-0-1-1-1-------------|


---------------------------------------|
---------------------------------------|
-5---5--------5-5--5-------------------|
-----------------------3-2-3/5-5-5-5-6-|

[ Tab from: http://www.guitartabs.cc/tabs/m/my_dying_bride/dreadful_hours_btab.html ]
---------------------------------------------------------------------------|
---------------------------------------------------------------------------|
-5-0-0-0-0-5-0-0-0-0-54-4-4/6-6-6--6-5-0-0-0-0-5-0-0-0-0-------------------|
----------------------------------------------------------3-2-3/5-5-5-5-6--|


-------------------------------------------------|
-------------------------------------------------|
-------------------------------------------7-----|
-5-5-5-5-5-5-5-5-5-5-5-5-8-8-8-7-7-7-8-8-8---8-7-|

-------------------------------------------------|
-------------------------------------------------|
-------------------------------------------7-----|
-4-4-4-4-4-4-4-4-4-4-4-4-8-8-8-7-7-7-8-8-8---8-7-|
Comments