My Dying Bride - Catherine Blake Chords & Tabs

 

Catherine Blake Chords & Tabs

My Dying Bride Chords & Tabs

Version: 1 Type: Tab 0 ratings
1 star 2 stars 3 stars 4 stars 5 stars
comments

Catherine Blake Tab

   
My Dying Bride

Songs of Darkness, Words of Light

'Catherine Blake'

h - hammer on
/ - slide
* - palm mute

Tuning: C#

|----------------------------------------------------------------|
|----------------------------------------------------------------|
|----------------------------------------------------------------|
|----------------------------------------------------------------|
|----0-3--2-2------0-3--2-2--------------------------------------|
|--7------0-0----7------0-0--------------------------------------|
          * *           * * 

|----------------------------------------------------------------|
|----------------------------------------------------------------|
|----------------------------------------------------------------|
|-9-9---7--/4h5h4----/9-7-/4h5-----------------------------------|
|------------------------------3---------------------------------|
|----------------------------------------------------------------|
[ Tab from: http://www.guitartabs.cc/tabs/m/my_dying_bride/catherine_blake_tab.html ]
|----------------------------------------------------------------|
|----------------------------------------------------------------|
|----------------------------------------------------------------|
|----------------------------------------------------------------|
|--7-8-10-7-8-10-7-8-10-7-8-10-----------------------------------|
|----------------------------------------------------------------|
   * * * * *  *  * *  * * * *   
|----------------------------------------------------------------|
|----------------------------------------------------------------|
|----------------------------------------------------------------|
|----------------------------------------------------------------|
|--6-7-9-6-7-9-6-7-9-6-7-9---------------------------------------|
|----------------------------------------------------------------|
   * * * * * * * * * * * *
|----------------------------------------------------------------|
|----------------------------------------------------------------|
|----------------------------------------------------------------|
|----------------------------------------------------------------|
|----------------------------------------------------------------|
|--7-8-10-7-8-10-7-8-10-7-8-10-----------------------------------| 
   * * *  * * *  * * *  * * *
|----------------------------------------------------------------|
|----------------------------------------------------------------|
|----------------------------------------------------------------|
|----------------------------------------------------------------|
|----------------------------------------------------------------|
|--6-7-9-6-7-9-6-7-9-6-7-9---------------------------------------|
   * * * * * * * * * * * *

|----------------------------------------------------------------|
|----------------------------------------------------------------|
|----------------------------------------------------------------|
|-/9-9-7-4h5--5-/9-9-7-4h5---/9-9-7-4h5---/9-9-7-4h5-/7----------|
|--------------------------3------------2------------------------|
|----------------------------------------------------------------|


|----------------------------------------------------------------|
|----------------------------------------------------------------|
|----------------------------------------------------------------|
|----------------------------------------------------------------|
|---------7-7-7-3-3-3---10-10-10-13---4-4-4-4-3-2----------------|
|---0-0-0---------------8--8--8--11---2-2-2-2-1-0----------------|
    * * * * * * * * *
Comments