My Computer - For Somebody Else Chords & Tabs

 

For Somebody Else Chords & Tabs

My Computer Chords & Tabs

Version: 1 Type: Tab 0 ratings
1 star 2 stars 3 stars 4 stars 5 stars
comments

For Somebody Else Tab

   
#----------------------------------PLEASE NOTE---------------------------------#
#This file is the author's own work and represents their interpretation of the #
#song. You may only use this file for private study, scholarship, or research. #
#------------------------------------------------------------------------------#

Transcribed by Sir Davidoff (darkwhiteorange@yahoo.com)

My Computer - For Somebody Else
From "Vunerabilia"


This is obviously only the first section of the song, as the second would be a 
little bit hard to play on a guitar :)

Standard tuning

CHORDS:

Am  002210
D   000121
G   320003
Gx  020003
Em  022000



INTRO:


(Play 3 times)
Am	D	G	Gx	Em
                    




 I got the money it
    
|---------------------------------|---------------------------------|
|--3-----------3-----------3------|--2-----------2-----------2------|
|------0-----------0-----------0--|------0-----------0-----------0--|
|--2-------2---2-------2---2------|--2-------2---2-------2---2------|
|---------------------------------|---------------------------------|
|---------------------------------|---------------------------------|

 just  came  through  yeah  yeah       such  a  pity  we  had     

|---------------------------------|---------------------------------|
|--1-----------1-----------1------|--0-----------0-----------0------|
|------0-----------0-----------0--|------0-----------0-----------0--|
|--2-------2---2-------2---2------|--2-------2---2-------2---2------|
|---------------------------------|---------------------------------|
|---------------------------------|---------------------------------|

   to   leave   it   there             It  isn't  funny  but  all

|---------------------------------|---------------------------------|
|--3-----------3-----------3------|--2-----------2-----------2------|
|------0-----------0-----------0--|------0-----------0-----------0--|
|--2-------2---2-------2---2------|--2-------2---2-------2---2------|
|---------------------------------|---------------------------------|
|---------------------------------|---------------------------------|

    you've   got   to   laugh         Girl  you  left  me too  soon

|---------------------------------|---------------------------------|
|--1-----------1-----------1------|--0-----------0-----------0------|
|------0-----------0-----------0--|------0-----------0-----------0--|
|--2-------2---2-------2---2------|--2-------2---2-------2---2------|
|---------------------------------|---------------------------------|
|---------------------------------|---------------------------------|

    your   house   I   passed               It's   for   somebody




     Am                        D
    else, someone better than you

                     G           Gx          Em
    Someone easy to please everything I now do
[ Tab from: http://www.guitartabs.cc/tabs/m/my_computer/for_somebody_else_tab.html ]
                       Am                        D
    It's for somebody else, someone so hard to find

                        G                Gx          Em
    I'll be filling my cup while you're losing your mind


    Go on admit it you




|---------------------------------|---------------------------------|
|--3-----------3-----------3------|--2-----------2-----------2------|
|------0-----------0-----------0--|------0-----------0-----------0--|
|--2-------2---2-------2---2------|--2-------2---2-------2---2------|
|---------------------------------|---------------------------------|
|---------------------------------|---------------------------------|

    made    a    big    mistake       Don't   deny   it   again     

|---------------------------------|---------------------------------|
|--1-----------1-----------1------|--0-----------0-----------0------|
|------0-----------0-----------0--|------0-----------0-----------0--|
|--2-------2---2-------2---2------|--2-------2---2-------2---2------|
|---------------------------------|---------------------------------|
|---------------------------------|---------------------------------|

    for     heaven's     sake         You  said  that  all  of  my

|---------------------------------|---------------------------------|
|--3-----------3-----------3------|--2-----------2-----------2------|
|------0-----------0-----------0--|------0-----------0-----------0--|
|--2-------2---2-------2---2------|--2-------2---2-------2---2------|
|---------------------------------|---------------------------------|
|---------------------------------|---------------------------------|

    castles   were   in   space       Now  I  stand  at  the  doors

|---------------------------------|---------------------------------|
|--1-----------1-----------1------|--0-----------0-----------0------|
|------0-----------0-----------0--|------0-----------0-----------0--|
|--2-------2---2-------2---2------|--2-------2---2-------2---2------|
|---------------------------------|---------------------------------|
|---------------------------------|---------------------------------|

    you're     lost     again         you're     lost     again

|---------------------------------|---------------------------------|
|--3-----------3-----------3------|--2-----------2-----------2------|
|------0-----------0-----------0--|------0-----------0-----------0--|
|--2-------2---2-------2---2------|--2-------2---2-------2---2------|
|---------------------------------|---------------------------------|
|---------------------------------|---------------------------------|

    you're     lost     again         you're     lost     again

|---------------------------------|--0------------------------------|
|--1-----------1-----------1------|--0------------------------------|
|------0-----------0-----------0--|--0------------------------------|
|--2-------2---2-------2---2------|--2------------------------------|
|---------------------------------|--0------------------------------|
|---------------------------------|---------------------------------|

    you're     lost     again  






Comments