My Chemical Romance - You Know What They Do To Guys Like Us In Prison Chords & Tabs

 

You Know What They Do To Guys Like Us In Prison Chords & Tabs

My Chemical Romance Chords & Tabs

Version: 3 Type: Tab 0 ratings
1 star 2 stars 3 stars 4 stars 5 stars
comments

You Know What They Do To Guys Like Us In Prison Tab

   
Guitar One - Rhythm
Guitar Two - Lead

Key---
E = Eleven
             It saves space and time.
T = Ten     /
<#> = Harmonics
x = Palm Mute


NEW AND IMPROVED!!!

Guitar One Intro x1/Verse x3
------------------------------33-33332222-----------------------------------------------|
----------444444-0-33-0-11111111-11111111-----------------------------------------------|
-33333333-555555-0-33-0-22222222--------------------------------------------------------|
-55555555-------------------------------------------------------------------------------|
----------------------------------------------------------------------------------------|
----------------------------------------------------------------------------------------|
Guitar Two Intro

-0-------------------------------------------------------------|
-0-------------------------------------------------------------|
-0-------------------------------------------------------------|
---------------------------------------------------------------|
---------------------------------------------------------------|
---------------------------------------------------------------|

Guitar Two Verse Riff
x3
---------------------------------------------------------------------------------|
---------------------------------------------------------------------------------|
-------------5-----777-8-7-5-----------------------------------------------------|
-7777-5--777---8-7-----------8-10-8-8-10-8-7-------------------------------------|
---------------------------------------------------------------------------------|
---------------------------------------------------------------------------------|


Chorusx2

Both x1
----------------------------------------------------|
----------------------------------------------------|
-------------------55555555555555-------------------|
--5555555555555555-55555555555555-3333333333333333--|
--5555555555555555-33333333333333-3333333333333333--|
--3333333333333333----------------1111111111111111--|

Guitar 2
----------------------------------------------------------------------------------|
----------------------------------------------------------------------------------|
-77777-888-EEEE-12121212----------------------------------------------------------|
----------------------------------------------------------------------------------|
-55555/666-9999-10101010----------------------------------------------------------|
----------------------------------------------------------------------------------|

Guitar One
----------------------------------------------------------------------------------|
----------------------------------------------------------------------------------|
-7777-8888-EEEE-12121212----------------------------------------------------------|
----------------------------------------------------------------------------------|
-5555-6666-9999-10101010----------------------------------------------------------|
----------------------------------------------------------------------------------|

Verse2
Guitar Two (Tremelo Picking)
-----------------------------------------------------------------------------|
-----------------------------------------------------------------------------|
-----------------------------------------------------------------------------|
--12-8-10-7--8-5--7--8-7-10-8-7-8-7-5-4-5------------------------------------|
-----------------------------------------------------------------------------|
-----------------------------------------------------------------------------|

----------------------------------------------------------------------------------------|
----------------------------------------------------------------------------------------|
----------------------------------------------------------------------------------------|
-12---15-13-12--13-10---8-7-10-8-7-8-8-7-5-7--------------------------------------------|
----------------------------------------------------------------------------------------|
----------------------------------------------------------------------------------------|

Guitar One
----------------------------------------------------------------------|
----------------------------------------------------------------------|
------------------5555555555555555-2222222222222222-7777777777777777--|
-5555555555555555-5555555555555555-5555555555555555-7777777777777777--|
-5555555555555555-3333333333331111-0000000000000000-5555555555555555--|
-3333333333333333-----------------------------------------------------|
 xxxxxxxxxxxxxxxx xxxxxxxxxxxxxxxx xxxxxxxxxxxxxxxx xxxxxxxxxxxxxxxx


------------------------------------------------------------------|
------------------------------------------------------------------|
-------------------------------------------------------777777777--|
---5--5--5--5-5555555555555555-5555555555555555-7777777777777777--|
-555555555555-3333333333331111-0000000000000000-5555555555555555--|
-33-33-33-33------------------------------------------------------|
 xx xx xx xx  xxxxxxxxxxxxxxxx xxxxxxxxxxxxxxxx xxxxxxx (Ease up on
                                                      Mute towards end)
Chorusx2

Both x1
----------------------------------------------------|
----------------------------------------------------|
-------------------55555555555555-------------------|
--5555555555555555-55555555555555-3333333333333333--|
--5555555555555555-33333333333333-3333333333333333--|
--3333333333333333----------------1111111111111111--|

Both
----------------------------------------------------------------------------------|
----------------------------------------------------------------------------------|
-7777-8888-EEEE-12121212----------------------------------------------------------|
----------------------------------------------------------------------------------|
-5555-6666-9999-10101010----------------------------------------------------------|
----------------------------------------------------------------------------------|
[ Tab from: http://www.guitartabs.cc/tabs/m/my_chemical_romance/you_know_what_they_do_to_guys_like_us_in_prison_tab_ver_3.html ]
Bridge:
Guitar Two
----------------------------------------------------------------------------------------------|
--------------------------15----15----15---16----16----16-------15----15--------13----13------|
-Nothing for first part:----15----15----15---15----15----15---15----15----15-15-----15----15--|
------------------------------15----15---------15----15-----15----15----15-15-----15----15----|
----------------------------------------------------------------------------------------------|
----------------------------------------------------------------------------------------------|
                               Work on the palm mutes.  Random.
Guitar One
------------------------------------------------|
-8--8-T-T-E--8-8-T-T-E--8--8-T-T-8-8-5-5-T-T-E--|
------------------------------------------------|
-5--5/7-7/8--5-5/7-7/8--5--5/7-75-53-3/7-7/8----|
------------------------------------------------|
------------------------------------------------|

-------------------------------------------------------|
-------------------------------------------------------|
------------------5555555555555555---------------------|
-8888888888888888------------------5555555555555555-4--|
-------------------------------------------------------|
-------------------------------------------------------|

SOLO:
Guitar One
--------------------------------------------------------------------------------|
--------------------------------------------------------------------------------|
--------------------------------------------------------------------------------|
-/10-10-8-7-8-5--/10-10-8-7-5-3-/10-10-8-7-4-/5-5-7-7-8-8-----Then Feedback-----|
--------------------------------------------------------------------------------|
--------------------------------------------------------------------------------|

Guitar Two
--------------------------------------------------------------------|
--------------------------------------------------------------------|
------------------8888888888888888-------------------/3--2-0-2-3-5--|
-5555555555555555-8888888888888888-7777777777777777-----------------|
-5555555555555555-6666666666666666-7777777777777777-----------------|
-3333333333333333------------------5555555555555555-----------------|

Guitar Two
-------------------------------------346346-6810-568-356-5---------------------|
------------------------------346346-------------------------------------------|
--------235235-357357-578578---------------------------------------------------|
-578578------------------------------------------------------------------------|
-------------------------------------------------------------------------------|
-------------------------------------------------------------------------------|

---13-12-10--9-7-7--------|-------171822-----------------------------------------|
-10--9--7--10-9-7--10-9-7-|-161820-----------------------------------------------|
--------------------------|------------------------------------------------------|
--------------------------|------------------------------------------------------|
--------------------------|------------------------------------------------------|
--------------------------|------------------------------------------------------|
                           Fast Tremelo Picking Here.

Post Bridge
Guitar One
---------------------------------------------------------|
---------------------------------------------------------|
-5555555555555555--<5>------<4>-7777-8888-EEEE-12121212--|
-5555555555555555--------<5>-----------------------------|
-3333333333333333---------------5555-6666-9999-10101010--|
---------------------------------------------------------|

Guitar Two
Feedback
----------------------------------------------------------------------------------------|
----------------------------------------------------------------------------------------|
-5555555555555555--<5>------<4>-7777-8888-EEEE-12121212---------------------------------|
-5555555555555555--------<5>------------------------------------------------------------|
-3333333333333333-----<5>-------5555-6666-9999-10101010---------------------------------|
----------------------------------------------------------------------------------------|

Go into Chorus one more time for guitar one.

Guitar Two

---------------------------------------------------------------------------|
---------------------------------------------------------------------------|
-1212121212121212-14141414-15151515-1212121212121212-14141414-15151515-----|
---------------------------------------------------------------------------|
-1010101010101010-12121212-13131313-1010101010101010-12121212-13131313-----|
---------------------------------------------------------------------------|


-------------------------------------------------------------|
-------------------------------------------------------------|
-TTTTTTTT-14141414-15151515-77777777-14141414-15151515-------|
-------------------------------------------------------------|
-88888888-12121212-13311313-55555555-12121212-13133113-------|
-------------------------------------------------------------|

Outro
Guitar One
---------------------------------------------------------------------------|
---------------------------------------------------------------------------|
-77-77-77-77-77-77-7-------------------------------------------------------|
-55-55-55-55-55-55-5-------------------------------------------------------|
---------------------------------------------------------------------------|
---------------------------------------------------------------------------|

Guitar Two
---------------------------------------------------------------------------|
---------------------------------------------------------------------------|
---------------------------------------------------------------------------|
-55-55-55-55-55-55-5-------------------------------------------------------|
-55-55-55-55-55-55-5-------------------------------------------------------|
-33-33-33-33-33-33-3-------------------------------------------------------|
Comments