My Chemical Romance - You Know What They Do To Guys Like Us In Prison Chords & Tabs

 

You Know What They Do To Guys Like Us In Prison Chords & Tabs

My Chemical Romance Chords & Tabs

Version: 2 Type: Tab 0 ratings
1 star 2 stars 3 stars 4 stars 5 stars
comments

You Know What They Do To Guys Like Us In Prison Tab

Yeah this is off mcr's new album but anywho i watched this cool concert video and watched
the hand movement and listened and the way i play it is super so here it is.........

Intro
|------------------------------|
|------------------------------|
|------------------------------|
|-6--------10--------9---------|
|-6-(x's8)-10-(x's8)-9-(x's 8--|
|-4--------8---------7---------|

Then that feedback part is a D chord with heavy distortion.
|-2-|
|-3-|
|-2-|
|---|
|---|
|---|

Then that part where you wanna dance like Kevin Bacon to footloose.
|----------------------------------------------------------------|x
|---------------------3-3-3-4-3----------------------------------|'
|-2-2-2-0-0-3-3-3-5-3-----------3-3-5-3-2------------------------|s
|-----------------------------------------3----------------------|
|----------------------------------------------------------------|3
|----------------------------------------------------------------|

The heavy chorus part.
|--------------------------------------------------------|
|--------------------------------------------------------|
|-7----------5---------------------7---------8-5---------|
|-7-(x's-16)-5-(x's-16)-3----------7-(x's-6)-8-5-(x's-6)-|
|-5----------3----------3-(x's-16)-5---------6-7---------|
|-----------------------1--------------------------------|

Then the fast part.
|-------------------------------|
|-3-(x's-8)-6-(x's-8)-2-(x's-4)-|
|-------------------------------|
|-------------------------------|
|-------------------------------|
|-------------------------------|

Then the heavy chorus part again.....but i dont feel like tabbing that part again.
[ Tab from: http://www.guitartabs.cc/tabs/m/my_chemical_romance/you_know_what_they_do_to_guys_like_us_in_prison_tab_ver_2.html ]
Then right here when he's talking soft....
|--------------------------------------------------------------|
|--------------------------------------------------------------|
|-0-1-2-0-1-2-1-2-1-2--3(x's-16)-5(x's-16)-7(x's-16)-8(x's-16)-|
|------------3---4---------------------------------------------|
|--------------------------------------------------------------|
|--------------------------------------------------------------|

Then the solo (im not 100% sure if it's right but im 99% sure it is)
(this part used with a wah wah pedal)
|--------------------------------------------|
|--2-----------------------------------------|
|-5--5-4-2-1-2-5-4-2-1-2-5-4-2-1-2-----------|
|-------------3---------4----------5-7-8-5-7-|
|--------------------------------------------|
|--------------------------------------------|

Then this is the part where its fast and I'm not all that sure about this part.
|-0-5-0-7-0-8-0-10-0-11-0-10-0-8-0-7-0-12-0-10-0-9-0-10-0-9-|
|-----------------------------------------------------------|
|-----------------------------------------------------------|
|-----------------------------------------------------------|
|-----------------------------------------------------------|
|-----------------------------------------------------------|

And on....
|-0-7-0-6-0-7-0-5-12-12-12-12-14-14-14-14-16-16-16-16-18-18-18-18-|
|-----------------------------------------------------------------|
|-----------------------------------------------------------------|
|-----------------------------------------------------------------|
|-----------------------------------------------------------------|
|-----------------------------------------------------------------|

Life is but a.......
|-4--------------------------------------------|
|-7--------------------------------------------|
|-6--------5-----------------------------------|
|-4(x's-8)-5-(x's-8)<-(Distorted)--------------|
|-4--------3-----------------------------------|
|-4--------------------------------------------|

Then the distorted D chord again
|-2-|
|-3-|
|-2-|
|---|
|---|
|---|

Then the heavy chorus part again (which I'm not typing again)

Then the end where he's like " Ow, Ow, Ow, Ow!"
|-----------------------|
|-----------------------|
|-----------------------|
|-5--5--5--5-5--5-------|
|-5--5--5--5-5--5-------|
|-3--3--3--3-3--3-------|
Comments