My Chemical Romance - You Know What They Do To Guys Like Us In Prison Chords & Tabs

 

You Know What They Do To Guys Like Us In Prison Chords & Tabs

My Chemical Romance Chords & Tabs

Version: 2 Type: Bass Tab 0 ratings
1 star 2 stars 3 stars 4 stars 5 stars
comments

You Know What They Do To Guys Like Us In Prison Bass Tab

   
Standard Tuning
G, D, A, E
Intro and Verse 1 (after "arms raised high)

G[----------------------------------------------------------------]
D[----------------------------------------------------------------]
A[----------------4-4-4-4-4-4-3-3-1-1-1-1-1-1-1-1-5-5-5-5-5-5-5-5-] x3
E[3-3-3-3-3-3-3-3-------------------------------------------------]

Chorus- x2

G[-----------------------------------------------------------------]
D[-----------------------------------------------------------------]
A[-----------------------3333333333333333--------------------------]
E[3333333333333333-------------------------1111111111111111--------]

G[--------------------]
D[--------------------]
A[5555555555555555----]
E[--------------------]

Verse 2- x2

G[-------------------------------------------------------------------]
D[-------------------------------------------------------------------]
A[------------------------333333333333-------------------------------]
E[3333333333333333--------------------66665555555555555555-----------]

G[--------------------]
D[--------------------]
A[5555555555555555----]
E[--------------------]

Play Chorus- x2

Bridge Part I

G[--------------------------------------------------------------------]
D[--------------------------------------------------------------------]
A[-----------------------33333333333333335555555555555555-------------]
E[3333333333333333----------------------------------------------------]

G[--------------------]
D[--------------------]
A[8888888888888888----]
E[--------------------]
[ Tab from: http://www.guitartabs.cc/tabs/m/my_chemical_romance/you_know_what_they_do_to_guys_like_us_in_prison_btab_ver_2.html ]
G[---------------------------------------------------------------------]
D[---------------------------------------------------------------------]
A[-------------------------33333333333333335555555555555555------------]
E[3333333333333333-----------------------------------------------------]

Bridge Part II

G[---------------------------------------------------------------------]
D[---------------------------------------------------------------------]
A[--------------------------6666666666666666---------------------------]
E[33333333333333333--------------------------5555555555555555----------]

G[----------------------]
D[----------------------]
A[5555555555555555------]
E[----------------------]

Ending ("Life is but a DREAM!!")

G[--------------------------------------------R-------------------------]
D[--------------------------------------------E----------------44444444-]
A[---------------------4444444444444444-------S----44444444-------------]
E[3-3-3-3-3-3-3-3-----------------------------T-------------------------]

G[----------------------------------------------------------------------]
D[--------------------------------------------------3333333333333333----]
A[-------------------------3333333333333333-----------------------------]
E[3333333333333333------------------------------------------------------]

G[----------------------------------------------------------------------]
D[----------44444444----------------------------------------------------]
A[44444444--------------------------------------------------------------]
E[--------------------------------------------3-3-3-3-3-3-3-3-3-3-3-3-3-]

This is my first tab so plz e-mail me any corrections (MKJOYCE8@aol.com) 
It should be like 99.9% right though!! Thankz! FenderChick89
Comments