My Chemical Romance - Vampires Will Never Hurt You Chords & Tabs

 

Vampires Will Never Hurt You Chords & Tabs

My Chemical Romance Chords & Tabs

Version: 1 Type: Tab 0 ratings
1 star 2 stars 3 stars 4 stars 5 stars
comments

Vampires Will Never Hurt You Tab

|------------------------------9-8----------------------------------|
|--------6--8--------------4----------------------------------------|
|----1--------5h6------------7--------------------------------------|
|-------3--------4----------3---------------------------------------|
|-----4-----2---------1-1-1-----------------------------------------|

|----------/4------------3------------2------------4---6-------6-|
|----------------2-----------3------------6-----------7p8--------|
|--------------3--------------------1--------------2h3---------6-|
|----------------3----------------1------------5------------2----|
|----------1----------------0--------------------4-------------8-|
[ Tab from: http://www.guitartabs.cc/tabs/m/my_chemical_romance/vampires_will_never_hurt_you_tab.html ]
Comments