My Chemical Romance - To The End Chords & Tabs

 

To The End Chords & Tabs

My Chemical Romance Chords & Tabs

Version: 3 Type: Tab 0 ratings
1 star 2 stars 3 stars 4 stars 5 stars
comments

To The End Tab

My Chemical Romance-To the end
Intro                                                                                    
                     X2
e|-----------------------------------|-------------------------------|
B|-----------------------------------|-------------------------------|
G|-7-7--12-12-12--14-14-14--10-10-10-|--9-9-9---9-9-9-7-7-7-6-6-6--|
D|-x-x---x--x--x---x--x--x---x--x--x-|--x-x-x---x-x-x-x-x-x--x-x-x--|
A|-5-5--10-10-10--12-12-12---8--8--8-|--7-7-7---7-7-7--5-5-5-4-4-4--|
E|-----------------------------------|-------------------------------|

e|------------------------------------|
B|------------------------------------|
G|-7-7-7-9-9-9-9-9-9-10-10-10------|
D|-x-x-x-x-x-x--x-x-x--x--x-x------|  Play this whole thing twice
A|-5-5-5-7-7-7-7-7-7--8--8--8------|
E|------------------------------------|

(Guitar 2)this plays after the whole intro has been played once
e|------------------------------------------|
B|------------------------------------------|
G|------------------------------------------|
D|-10-12-15--17--19-17---10-12-15-17-14-15--|X4
A|------------------------------------------|
E|------------------------------------------|

Pre-chorus
e|--------------------------|
B|--------------------------|
G|-7~---5~------------------|
D|-7~---5~---7~----77777777-|
A|-5~---3~---7~----77777777-|
E|-----------5~----55555555-|

Chorus
e|-------------------------------------------------------------------|
B|-------------------------------------------------------------------|
G|-77-777-777-777---55-555-555-555-----------------------------------|
D|-77-777-777-777---55-555-555-555---77-777-777-777---88-888-888-888-|
A|-55-555-555-555---33-333-333-333---77-777-777-777---88-888-888-888-|
E|-----------------------------------55-555-555-555---66-666-666-666-|

Play just at the end of the chorus
e|-------------|
B|-7---77---77-|
G|-7---77---77-|
D|-5---55---55-|
A|-------------|
E|-------------|

Verse
e|-----------------------------------|-------------------------------|
B|-----------------------------------|-------------------------------|
G|-7-7--12-12-12--14-14-14--10-10-10-|--9-9-9---9-9-9-7-7-7-6-6-6--|
D|-x-x---x--x--x---x--x--x---x--x--x-|--x-x-x---x-x-x-x-x-x--x-x-x--|
A|-5-5--10-10-10--12-12-12---8--8--8-|--7-7-7---7-7-7--5-5-5-4-4-4--|
E|-----------------------------------|-------------------------------|
[ Tab from: http://www.guitartabs.cc/tabs/m/my_chemical_romance/to_the_end_tab_ver_3.html ]
e|------------------------------------|
B|------------------------------------|
G|-7-7-7-9-9-9-9-9-9-10-10-10------|
D|-x-x-x-x-x-x--x-x-x--x--x-x------|  Play this whole thing twice
A|-5-5-5-7-7-7-7-7-7--8--8--8------|
E|------------------------------------|

Pre chorus
e|----------------------------------|
B|----------------------------------|
G|-7-------5------------------------|
D|-7(x16)-5(x16)-7-------77777777-|
A|-5-------3-------7(x16)-77777777-|
E|-----------------5-------55555555-|

Chorus
e|-----------------------------------------------------------------------|
B|-----------------------------------------------------------------------|
G|-77-777-777-777---55-555-555-555---------------------------------------|
D|-77-777-777-777---55-555-555-555---7777777777777777---8888888888888888-|
A|-55-555-555-555---33-333-333-333---7777777777777777---8888888888888888-|
E|-----------------------------------5555555555555555---6666666666666666-|

Solo
e|--------------------------------------------------------------------------|
B|--------------------------------------------------------------------------|
G|-------------------------12-----------12-14-------12-14-15-12-14----12-14-|
D|-12-14-15-15-12-14-15-15----14-15-15--------15-15----------------15-------|
A|--------------------------------------------------------------------------|
E|--------------------------------------------------------------------------|

e|--------------------------------|
B|--------------------------------|
G|--------------------------------|
D|--------12----------------------|
A|-15-15-----13-15-12-----12------|
E|---------------------15-----13~-|

e|--------------------------------------------------------------------------|
B|--------------------------------------------------------------------------|
G|-------------------------12-----------12-14-------12-14-15-12-14----12-14-|
D|-12-14-15-15-12-14-15-15----14-15-15--------15-15----------------15-------|
A|--------------------------------------------------------------------------|
E|--------------------------------------------------------------------------|

e|----------------------------------|
B|----------------------------------|
G|-15-15-12-14-12-14-12-14-----12~~-|
D|-------------------------15-------|
A|----------------------------------|
E|----------------------------------|

Final Chorus
e|-----------------------------------------------------------------------|
B|-----------------------------------------------------------------------|
G|-77-777-777-777---55-555-555-555---------------------------------------|
D|-77-777-777-777---55-555-555-555---7777777777777777---8888888888888888-|X4
A|-55-555-555-555---33-333-333-333---7777777777777777---8888888888888888-|
E|-----------------------------------5555555555555555---6666666666666666-|
Comments