My Chemical Romance - To The End Chords & Tabs

 

To The End Chords & Tabs

My Chemical Romance Chords & Tabs

Version: 2 Type: Bass Tab 0 ratings
1 star 2 stars 3 stars 4 stars 5 stars
comments

To The End Bass Tab

   
Song - To The End
Artist - My Chemical Romance
Album - Three Cheers for Sweet Revenge
Tabbed by - Daniel Cummins - dan_the_man_no1@hotmail.com

VERSE - start at 0.12 - these notes are on the off beat(if u no wot i mean) apart from the 0~
G|---------------------------------|
D|---------------------------------|
A|--5-5-5-5-4-4-4-4-1-1-1-1-----0~-|
E|--------------------------3-3----|

PRE CHORUS - 
G|-----------------------------------------------------------------------|
D|-----------------------------------------------------------------------|
A|-----------------------------------------------------------------------|
E|-3333333333333333-1111111111111111-0000000000000000-555555/66/99999999-|

CHORUS - 
G|-----------------------------------------------------------|
D|-----------------------------------------------------------|
A|-5-55-55-55-53-33-33-33-30-00-00-00-01-11-11-11-15--5-5--5-|
E|-----------------------------------------------------------|

VERSE - 
G|---------------------------------------------------------------------------------------------|
D|---------------------------------------------------------------------------------------------|
A|-5-55-55-55-54-44-44-44-41-11-11-11-1------0~4~-5-55-55-55-54-44-44-44-41-11-11-11-1------0~-|
E|-------------------------------------3-33-3-----------------------------------------3-33-3---|

PRE CHORUS - 
G|--------------------------------------------------------|
D|--------------------------------------------------------|
A|--------------------------------------------------------|
E|-3-33-33-33-31-11-11-11-10-00-00-00-0555555/66/99999999-|
[ Tab from: http://www.guitartabs.cc/tabs/m/my_chemical_romance/to_the_end_btab_ver_2.html ]
CHORUS - 
G|-----------------------------------------------------------|
D|-----------------------------------------------------------|
A|-5-55-55-55-53-33-33-33-30000000000000000-1111111111111111-|
E|-----------------------------------------------------------|

G|-----------------------------------------------------------|
D|-----------------------------------------------------------|
A|-5-55-55-55-53-33-33-33-30000000000000000-1111111111111111-|
E|-----------------------------------------------------------|


BRIDGE - 
G|------------------------------------------------------------------|
D|------------------------------------------------------------------|
A|-5-5-5-5-1-1-1-1-0-0-0-0-1-1-1-1-5-5-5-5-1-1-1-1-0-0-0-0-11111111-|
E|------------------------------------------------------------------|

SOLO - 
G|-------------------------------------------------------------------------|
D|-------------------------------------------------------------------------|
A|-55555555-11111111-00000000-11111111-55555555-11111111-------------------|
E|-------------------------------------------------------33333333-88889999-|

CHORUS - 
G|-----------------------------------------------------------|
D|-----------------------------------------------------------|
A|-5-55-55-55-53-33-33-33-30000000000000000-1111111111111111-|
E|-----------------------------------------------------------|

G|-----------------------------------------------------------|
D|-----------------------------------------------------------|
A|-5-55-55-55-53-33-33-33-30000000000000000-1111111111111111-|
E|-----------------------------------------------------------|

OUTRO - 
G|--------------------------------------------------------------------------|
D|--------------------------------------------------------------------------|
A|-3333333333333333-5555555555555555-1111111111111111-3333333333333333-5~~~-|
E|--------------------------------------------------------------------------|

Im pretty sure its right if sumfin is rong itl be the outro cz its abit wierd.
Please comment n rate. thnx!
Dan.
Comments