My Chemical Romance - This Is The Best Day Ever Chords & Tabs

 

This Is The Best Day Ever Chords & Tabs

My Chemical Romance Chords & Tabs

Version: 2 Type: Tab 0 ratings
1 star 2 stars 3 stars 4 stars 5 stars
comments

This Is The Best Day Ever Tab

   
Song: This Is The Best Day Ever
Band: My Chemical Romance
Album: I Brought You My Bullets, You Brought Me Your Love


Song: This Is The Best Day Ever
Band: My Chemical Romance
Album: I Brought You My Bullets, You Brought Me Your Love


Gtr I Frank Iero: Standard Tuning (e,B,G,D,A,e)
Gtr II Ray Toro: Standard Tuning (e,B,G,D,A,e)

NOTE: I'v only figured out Gtr II's parts for the intro,chorus and outro.
And yes I know this tab does pretty much suck
but if anyone could help me out with some of the missing parts and strumming pattern
etc that would be good


Intro

   Gtr I Frank

e:|-----------------------------------|
B:|-----------------------------------|
G:|-1111111111111111-1212121212121212-|
D:|-----------------------------------|
A:|-9-9-9-9-9-9-9-9--1010101010101010-|
E:|-----------------------------------|
  |
  |Gtr II Ray
  |
e:|----------------------------------|
B:|----------------------------------|
G:|----------------------------------|
D:|----------------------------------|
A:|-9-9-9-9-9-9-9-9-1010101010101010-|
E:|----------------------------------|
PM  * * * * * * * * * * * * * * * *

   Gtr I Frank

e:|-------------------------------------|
B:|---------------------------15151515--|
G:|-1414141414141414-16161616-----------|
D:|---------------------------12121212--|
A:|-1212121212121212-14141414-----------|
E:|-------------------------------------|
  |
  |Gtr II Ray
  |
e:|------------------------------------|
B:|------------------------------------|
G:|------------------------------------|
D:|------------------------------------|
A:|-1212121212121212-14141414-19191919-|
E:|------------------------------------|
PM  * * * * * * * *  * * * *  * * * *

   Gtr I Frank

e:|-----------------------------------|
B:|-----------------------------------|
G:|-1111111111111111-1212121212121212-|
D:|-----------------------------------|
A:|-9-9-9-9-9-9-9-9--1010101010101010-|
E:|-----------------------------------|
  |
  |Gtr II Ray 
  |
e:|----------------------------------|
B:|----------------------------------|
G:|----------------------------------|
D:|----------------------------------|
A:|-9-9-9-9-9-9-9-9-1010101010101010-|
E:|----------------------------------|
PM  * * * * * * * * * * * * * * * *

   Gtr I Frank

e:|-----------------------------|
B:|-----------------------------|
G:|-1414141414141414-1111111111-|
D:|-----------------------------|
A:|-1212121212121212-9-9-9-9-9--|
E:|-----------------------------|
  |
  |Gtr II Ray
  |
e:|----------------------------|
B:|----------------------------|
G:|----------------------------|
D:|----------------------------|
A:|-1212121212121212-9-9-9-9-9-|
E:|----------------------------|
PM  * * * * * * * *  * * * * *


Verse I


    Gtr I Frank

e:|-----------------------------------|
B:|-----------------------------------|
G:|-1111111111111111-1212121212121212-|
D:|-----------------------------------|
A:|-9-9-9-9-9-9-9-9--1010101010101010-|
E:|-----------------------------------|
  |
  | Gtr II Ray
  |
e:|---------------------------|
B:|---------------------------|
G:|---------------------------|
D:|---------------------------|
A:|-99999999-1010101010101010-|
E:|-77777777--8-8-8-8-8-8-8-8-|

    Gtr I Frank
[ Tab from: http://www.guitartabs.cc/tabs/m/my_chemical_romance/this_is_the_best_day_ever_tab_ver_2.html ]
e:|-------------------------------------|
B:|----------------------------15151515-|
G:|-1414141414141414-16161616-----------|
D:|----------------------------12121212-|
A:|-1212121212121212-14141414-----------|
E:|-------------------------------------|  
  |
  | Gtr II Ray
  |
e:|------------------------------------|
B:|------------------------------------|
G:|------------------------------------|
D:|------------------------------------|
A:|-1212121212121212-14141414-19191919-|
e:|-1010101010101010-12121212-17171717-|

    Gtr I Frank
                                          
e:|-----------------------------------|          
B:|-----------------------------------|       
G:|-1111111111111111-1212121212121212-|
D:|-----------------------------------|
A:|-9-9-9-9-9-9-9-9--1010101010101010-|
E:|-----------------------------------|
  | 
  | Gtr II Ray
  |
e:|---------------------------|
B:|---------------------------|
G:|---------------------------|
D:|---------------------------|
A:|-99999999-1010101010101010-|
E:|-77777777--8-8-8-8-8-8-8-8-|
 
    Gtr I Frank

e:|-----------------------------|
B:|-----------------------------|
G:|-1414141414141414-1111111111-|
D:|-----------------------------|
A:|-1212121212121212-9-9-9-9-9--|
E:|-----------------------------|
  |
  | Gtr II Ray
  |
e:|-----------------------|
B:|-----------------------|
G:|-----------------------|
D:|-----------------------|
A:|-1212121212121212-9999-|
e:|-1010101010101010-7777-|


At (Every hour) Gtr I plays this (Not very sure about this)

e:|---------------------------------|
B:|---------7h9p7--14h15p14--9h11p9-|
G:|-9h11p9--------------------------| x2
D:|---------------------------------|
A:|---------------------------------|
E:|---------------------------------|

e:|---------------------------------|
B:|-9h11p9--14h15p14--9h11p9--14h15-|
G:|---------------------------------|
D:|---------------------------------|
A:|---------------------------------|
E:|---------------------------------|


Verse II

e:|-----------------------------------|
B:|-----------------------------------|
G:|-1111111111111111-1212121212121212-|
D:|-----------------------------------|
A:|-9-9-9-9-9-9-9-9--1010101010101010-|
E:|-----------------------------------|

e:|--------------------------------------|
B:|----------------------------15151515--|
G:|-1414141414141414-16161616------------|
D:|----------------------------12121212--|
A:|-1212121212121212-14141414------------|
E:|--------------------------------------|


Pre Chorus

e:|-----------------------------------------|
B:|-----------------------------------------|
G:|-----------------------------------------|
D:|-12-12-12-12-11-11-11-11-9-9-9-9---------|
A:|-10-10-10-10--9--9--9--9-7-7-7-7-9-9-9-9-|
E:|---------------------------------7-7-7-7-|

e:|---------------------------------|
B:|---------------------------------|
G:|---------------------------------|
D:|-12-12-12-12-11-11-11-11-7-9-5~-|
A:|-10-10-10-10--9--9--9--9-5-7-3~-|
E:|---------------------------------|


Chorus (I only have the rhythm for this)

Gtr II Frank

e:|-----------------------------------------------|
B:|-----------------------------------------------|
G:|------------------------5555/7777-5555-444-222-|
D:|-55555555-4444-22222222-5555-xxxx-5555-444-222-|
A:|-55555555-5555-22222222-3333/5555-3333-222-000-|
E:|-33333333-2222-00000000------------------------|

e:|-------------------|
B:|-------------------|
G:|-------------------|
D:|-2--44--55--5-4--2-|
A:|-2--55--55--5-5--2-|
E:|-0--22--33--3-2--0-|

e:|---------------------|
B:|---------------------|
G:|-5555/7777/5555/7777-|
D:|---------------------|
A:|-3333/5555/3333/5555-|
E:|---------------------|

Outro

Gtr I Ray

e:|---------------|
B:|---------------|
G:|-5---5---5---5-|
D:|---------------|
A:|-3---3---3---3-|
E:|---------------|

Gtr II Frank

e:|------------------|
B:|------------------|
G:|------------------|
D:|-2---22---22---22-|
A:|-2---22---22---22-|
E:|-0---00---00---00-|

Gtr I Ray

e:|-------------------|
B:|-------------------|
G:|-5555/7777/9/7/5~~-|
D:|-------------------|
A:|-3333/5555/7/5/3~~-|
E:|-------------------|

e:|-----|
B:|-----|
G:|-----|
D:|-555-|
A:|-555-| 
e:|-333-|
Comments