My Chemical Romance - Thank You For The Venom Chords & Tabs

 

Thank You For The Venom Chords & Tabs

My Chemical Romance Chords & Tabs

Version: 9 Type: Tab 0 ratings
1 star 2 stars 3 stars 4 stars 5 stars
comments

Thank You For The Venom Tab

   
Band: My Chemical Romance
Album: Three Cheers For Sweet Revenge

Key:

h:- Hammer on
p:- Pull off
T:- Tap
x:- String Mute
*:- Pal mute
^:- Bend
r:- Release
/ or \:- Slide

Gtr I Ray: Standard tuning (e,B,G,D,A,e)
Gtr II Frank: Standard tuning (e,B,G,D,A,e)


Intro I:

Gtr I

e:|-------------------------------------------------------------------|
B:|-------------------------------------------------------------------|
G:|-4-----------------------------------------------------------------|
D:|-4-----------------0h2-------------------2---4---5-----4---2---5---|
A:|-2-2-4-5-4-2-----------4-5-4-2-------------------------------------|
E:|-------------3-2-3-------------3-2-3-0-0---0---0---2-2---2---2---2-|
PM    * * * * * * * *     * * * * * * * * * * * * * * * * * * * * * *

e:|--------------------------------------------------------------|
B:|--------------------------------------------------------------|
G:|-4-----------------0h2----------------------------------------|
D:|-4---------------------------------------2---4---5---4-4--4-4-|
A:|-2-2-4-5-4-2-----------4-5-4-2-----------------------4-4--4-4-|
E:|-------------3-2-3-------------3-2-3-0-0---0---0---0-2-2--2-2-|
PM    * * * * * * * *     * * * * * * * * * * * * * * * * *  * *

Gtr II

e:|------------------------------------------------|
B:|------------------------------------------------|
G:|-4-----------------------4----------------------|
D:|-4-----2-2-----4-4--2-2--4-----2-2-----2-2--2-2-|
A:|-2-----2-2-----4-4--2-2--2-----2-2-----2-2--2-2-|
E:|-------0-0-----2-2--0-0--------0-0-----0-0--0-0-|
PM        * *     * *  * *        * *     * *  * * 

Intro II:

Gtr I (x2)

e:|-------------------------------------------------------------------|
B:|-------------------------------------------------------------------|
G:|-4-----------------------------------------------------------------|
D:|-4-----------------0h2-------------------2---4---5-----4---2---5---|
A:|-2-2-4-5-4-2-----------4-5-4-2-------------------------------------|
E:|-------------3-2-3-------------3-2-3-0-0---0---0---2-2---2---2---2-|
PM    * * * * * * * *     * * * * * * * * * * * * * * * * * * * * * *      

Gtr II

e:|---------------------------------------------------------|
B:|---------------------------------------------------------|
G:|-7-7-7-7-7-7-7-7-7-7-7-7-7-7-7-7-6-6-6-6-7-7-7-7-7-7-7-7-|
D:|-9-9-9-9-9-9-9-9-9-9-9-9-9-9-9-9-9-9-9-9-9-9-9-9-9-9-9-9-|
A:|---------------------------------------------------------|
E:|---------------------------------------------------------|

e:|----------------------------------------------------------|
B:|----------------------------------------------------------|
G:|-9-9-9-9-11111111-7-7-7-7-7-7-7-7-7-7-7-7-7-7-7-7-6-6-6-6-|
D:|-9-9-9-9--9-9-9-9-9-9-9-9-9-9-9-9-9-9-9-9-9-9-9-9-9-9-9-9-|
A:|----------------------------------------------------------|
E:|----------------------------------------------------------|

e:|-----------------------------------|
B:|-----------------------------------|
G:|-12121212-11111111-7-7-7-7-6-6-6-6-|
D:|--9-9-9-9--9-9-9-9-9-9-9-9-9-9-9-9-|
A:|-----------------------------------|
E:|-----------------------------------|

Pre-Verse:

Gtr II

e:|-----------------------------------------------------------------|
B:|-----------------------------------------------------------------|
G:|-7-7-7-7-7-7-7-7-6-6-6-6-6-6-6-6-7-7-7-7-7-7-7-7-6-6-6-6-6-6-6-6-|
D:|-9-9-9-9-9-9-9-9-9-9-9-9-9-9-9-9-9-9-9-9-9-9-9-9-9-9-9-9-9-9-9-9-|
A:|-----------------------------------------------------------------|
E:|-----------------------------------------------------------------|
PM  * * * * * * * * * * * * * * * * * * * * * * * * * * * * * * * *

Verse I:

Gtr I

e:|-------------------------------------------------------------|
B:|-------------------------------------------------------------|
G:|-----------------------------7-7-7-7-7-7-7/6/3-3-3-3-3-3-3-3-|
D:|-4-4-4-4-4-4-5-4-4-4-4-4-4-5-x-x-x-x-x-x-x-x-x-x-x-x-x-x-x-x-|
A:|-4-4-4-4-4-4-5-4-4-4-4-4-4-5-5-5-5-5-5-5-5/4/1-1-1-1-1-1-1-1-|
E:|-2-2-2-2-2-2-3-2-2-2-2-2-2-3---------------------------------|

e:|------------------------------------------------------|
B:|------------------------------------------------------|
G:|-6-6--6-7-7--7-6-6--6-7-7--7-6-6--6-7-7--7-6-6--6-7-7-|
D:|-7-7--7-7-7--7-7-7--7-7-7--7-7-7--7-7-7--7-7-7--7-7-7-|
A:|-x-x--x-x-x--x-x-x--x-x-x--x-x-x--x-x-x--x-x-x--x-x-x-|
E:|-7-7--7-7-7--7-7-7--7-7-7--7-7-7--7-7-7--7-7-7--7-7-7-|

e:|-------------------------------------------------------------|
B:|-------------------------------------------------------------|
G:|-------------------------------------------------------------|
D:|-4-4-4-4-4-4-4-4-4-4-4-4-7-7-7-4-4-4-4-4-4-4-4-4-4-4-4-7-9-9-|
A:|-2-2-2-2-2-2-2-2-2-2-2-2-5-7-7-2-2-2-2-2-2-2-2-2-2-2-2-5-7-7-|
E:|---------------------------5-5-------------------------------|

e:|-------------------------------------------------------------|
B:|-------------------------------------------------------------|
G:|-----------------------------7-7-7-7-7-7-7/6/3-3-3-3-3-3-3-3-|
D:|-4-4-4-4-4-4-5-4-4-4-4-4-4-5-x-x-x-x-x-x-x-x-x-x-x-x-x-x-x-x-|
A:|-4-4-4-4-4-4-5-4-4-4-4-4-4-5-5-5-5-5-5-5-5/4/1-1-1-1-1-1-1-1-|
E:|-2-2-2-2-2-2-3-2-2-2-2-2-2-3---------------------------------|

e:|------------------------------------------------------|
B:|------------------------------------------------------|
G:|-6-6--6-7-7--7-6-6--6-7-7--7-6-6--6-7-7--7-6-6--6-7-7-|
D:|-7-7--7-7-7--7-7-7--7-7-7--7-7-7--7-7-7--7-7-7--7-7-7-|
A:|-x-x--x-x-x--x-x-x--x-x-x--x-x-x--x-x-x--x-x-x--x-x-x-|
E:|-7-7--7-7-7--7-7-7--7-7-7--7-7-7--7-7-7--7-7-7--7-7-7-|

e:|-------------------------------------------------------------|
B:|-------------------------------------------------------------|
G:|-----------------------------7-7-7-7-7-7-7/6/3-3-3-3-3-3-3-3-|
D:|-4-4-4-4-4-4-5-4-4-4-4-4-4-5-x-x-x-x-x-x-x-x-x-x-x-x-x-x-x-x-|
A:|-4-4-4-4-4-4-5-4-4-4-4-4-4-5-5-5-5-5-5-5-5/4/1-1-1-1-1-1-1-1-|
E:|-2-2-2-2-2-2-3-2-2-2-2-2-2-3---------------------------------|

Gtr II

e:|-------------------------------------------------------------|
B:|-------------------------------------------------------------|
G:|-----------------------------7-7-7-7-7-7-7/9/6-6-6-6-6-6-6-6-|
D:|-4-4-4-4-4-4-5-4-4-4-4-4-4-5-x-x-x-x-x-x-x-x-x-x-x-x-x-x-x-x-|
A:|-4-4-4-4-4-4-5-4-4-4-4-4-4-5-5-5-5-5-5-5-5/7/4-4-4-4-4-4-4-4-|
E:|-2-2-2-2-2-2-3-2-2-2-2-2-2-3---------------------------------|

e:|------------------------------------------------------------|
B:|------------------------------------------------------------|
G:|---------------9-9--9/1111-11---------------1414-14/1111-11-|
D:|-9-9--9-9-9--9-x-x--x--x-x--x-9-9--9-9-9--9--x-x--x--x-x--x-|
A:|-9-9--9-9-9--9-7-7--7/-9-9--9-9-9--9-9-9--9-1212-12/-9-9--9-|
E:|-7-7--7-7-7--7----------------7-7--7-7-7--7-----------------|

e:|-------------------------------------------------------------|
B:|-------------------------------------------------------------|
G:|-----------------------------7-7-7-7-7-7-7/9/6-6-6-6-6-6-6-6-|
D:|-4-4-4-4-4-4-5-4-4-4-4-4-4-5-x-x-x-x-x-x-x-x-x-x-x-x-x-x-x-x-|
A:|-4-4-4-4-4-4-5-4-4-4-4-4-4-5-5-5-5-5-5-5-5/7/4-4-4-4-4-4-4-4-|
E:|-2-2-2-2-2-2-3-2-2-2-2-2-2-3---------------------------------|

e:|-------------------------------------------------------------|
B:|-------------------------------------------------------------|
G:|-------------------------------------------------------------|
D:|-4-4-4-4-4-4-4-4-4-4-4-4-7-7-7-4-4-4-4-4-4-4-4-4-4-4-4-7-9-9-|
A:|-2-2-2-2-2-2-2-2-2-2-2-2-5-7-7-2-2-2-2-2-2-2-2-2-2-2-2-5-7-7-|
E:|---------------------------5-5-------------------------------|

e:|-------------------------------------------------------------|
B:|-------------------------------------------------------------|
G:|-----------------------------7-7-7-7-7-7-7/9/6-6-6-6-6-6-6-6-|
D:|-4-4-4-4-4-4-5-4-4-4-4-4-4-5-x-x-x-x-x-x-x-x-x-x-x-x-x-x-x-x-|
A:|-4-4-4-4-4-4-5-4-4-4-4-4-4-5-5-5-5-5-5-5-5/7/4-4-4-4-4-4-4-4-|
E:|-2-2-2-2-2-2-3-2-2-2-2-2-2-3---------------------------------|

e:|------------------------------------------------------------|
B:|------------------------------------------------------------|
G:|---------------9-9--9/1111-11---------------1414-14/1111-11-|
D:|-9-9--9-9-9--9-x-x--x--x-x--x-9-9--9-9-9--9--x-x--x--x-x--x-|
A:|-9-9--9-9-9--9-7-7--7/-9-9--9-9-9--9-9-9--9-1212-12/-9-9--9-|
E:|-7-7--7-7-7--7----------------7-7--7-7-7--7-----------------|

e:|--------------------------------------------------|
B:|--------------------------------------------------|
G:|-----------------------------7-7-7-7-7-7-7/9/11~~-|
D:|-4-4-4-4-4-4-5-4-4-4-4-4-4-5-x-x-x-x-x-x-x-x--x---|
A:|-4-4-4-4-4-4-5-4-4-4-4-4-4-5-5-5-5-5-5-5-5/7/-9~~-|
E:|-2-2-2-2-2-2-3-2-2-2-2-2-2-3----------------------|

Pre-Chorus:

Gtr I

e:|-----------------------------------------------------------------|
B:|-----------------------------------------------------------------|
G:|-----------------------------------------------------------------|
D:|-5-5-5-5-5-5-5-5-7-7-7-7-9-9-9-9---------------------------------|
A:|-5-5-5-5-5-5-5-5-7-7-7-7-9-9-9-9-9-9-9-9-9-9-9-9-5-5-5-5-7-7-7-7-|
e:|-3-3-3-3-3-3-3-3-5-5-5-5-7-7-7-7-6-6-6-6-6-6-6-6-7-7-7-7-9-9-9-9-|

e:|-----------------------------------------------------------------|
B:|-----------------------------------------------------------------|
G:|-----------------------------------------------------------------|
D:|-5-5-5-5-5-5-5-5-5-5-5-5-5-5-5-5-7-7-7-7-7-7-7-7-7-7-7-7-7-7-7-7-|
A:|-5-5-5-5-5-5-5-5-5-5-5-5-5-5-5-5-7-7-7-7-7-7-7-7-7-7-7-7-7-7-7-7-|
e:|-3-3-3-3-3-3-3-3-3-3-3-3-3-3-3-3-5-5-5-5-5-5-5-5-5-5-5-5-5-5-5-5-|

Gtr II

e:|-----------------------------------------------------------------|
B:|-----------------------------------------------------------------|
G:|-----------------2-2-2-2-4-4-4-4-----------------4-4-4-4/6-6-6-6-|
D:|-5-5-5-5-5-5-5-5-2-2-2-2-4-4-4-4-4-4-4-4-4-4-4-4-x-x-x-x-x-x-x-x-|
A:|-5-5-5-5-5-5-5-5-0-0-0-0-2-2-2-2-1-1-1-1-1-1-1-1-2-2-2-2/4-4-4-4-|
E:|-3-3-3-3-3-3-3-3-------------------------------------------------|

e:|-----------------------------------------------------------------|
B:|-----------------------------------------------------------------|
G:|---------------------------------2-2-2-2-2-2-2-2-4-4-4-4/6-6-6-6-|
D:|-5-5-5-5-5-5-5-5-5-5-5-5-5-5-5-5-2-2-2-2-2-2-2-2-x-x-x-x-x-x-x-x-|
A:|-5-5-5-5-5-5-5-5-5-5-5-5-5-5-5-5-0-0-0-0-0-0-0-0-2-2-2-2/4-4-4-4-|
E:|-3-3-3-3-3-3-3-3-3-3-3-3-3-3-3-3---------------------------------|

Chorus:

Gtr I (x4)

e:|-----------------------------------------------------------------|
B:|-8-8-8-8-8-8-8-8-7-7-7-7-7-7-7-7-8-8-8-8-8-8-8-8-7-7-7-7-7-7-7-7-|
G:|-7-7-7-7-7-7-7-7-7-7-7-7-7-7-7-7-7-7-7-7-7-7-7-7-7-7-7-7-7-7-7-7-|
D:|-x-x-x-x-x-x-x-x-x-x-x-x-x-x-x-x-x-x-x-x-x-x-x-x-x-x-x-x-x-x-x-x-|
A:|-5-5-5-5-5-5-5-5-5-5-5-5-5-5-5-5-4-4-4-4-4-4-4-4-4-4-4-4-4-4-4-4-|
E:|-----------------------------------------------------------------|

e:|-----------------------------------------------------------------|
B:|-2-2-2-2-2-2-2-2-3-3-3-3-3-3-3-3---------------------------------|
G:|-4-4-4-4-4-4-4-4-4-4-4-4-4-4-4-4-6-6-6-6-6-6-6-6-7-7-7-7-7-7-7-7-|
D:|-4-4-4-4-4-4-4-4-4-4-4-4-4-4-4-4-5-5-5-5-5-5-5-5-5-5-5-5-5-5-5-5-|
A:|-2-2-2-2-2-2-2-2-2-2-2-2-2-2-2-2-5-5-5-5-5-5-5-5-5-5-5-5-5-5-5-5-|
E:|---------------------------------3-3-3-3-3-3-3-3-3-3-3-3-3-3-3-3-|

Gtr II

e:|-----------------------------------------------------------------|
B:|-----------------------------------------------------------------|
G:|-7-7-7-7-7-7-7-7-7-7-7-7-7-7-7-7-6-6-6-6-6-6-6-6-6-6-6-6-6-6-6-6-|
D:|-7-7-7-7-7-7-7-7-7-7-7-7-7-7-7-7-7-7-7-7-7-7-7-7-7-7-7-7-7-7-7-7-|
A:|-5-5-5-5-5-5-5-5-5-5-5-5-5-5-5-5-4-4-4-4-4-4-4-4-4-4-4-4-4-4-4-4-|
E:|-----------------------------------------------------------------|

e:|-----------------------------------------------------------------|
B:|-----------------------------------------------------------------|
G:|-4-4-4-4-4-4-4-4-4-4-4-4-4-4-4-4---------------------------------|
D:|-4-4-4-4-4-4-4-4-4-4-4-4-4-4-4-4-5-5-5-5-5-5-5-5-5-5-5-5-5-5-5-5-|
A:|-2-2-2-2-2-2-2-2-2-2-2-2-2-2-2-2-5-5-5-5-5-5-5-5-5-5-5-5-5-5-5-5-|
E:|---------------------------------3-3-3-3-3-3-3-3-3-3-3-3-3-3-3-3-|

e:|------------------------------------------------------------------|
B:|------------------------------------------------------------------|
G:|-7-7-7-7-7-7-7-7/9-9-9-9/11111111-6-6-6-6-6-6-6-6/7-7-7-7/9-9-9-9-|
D:|-x-x-x-x-x-x-x-x-x-x-x-x--x-x-x-x-x-x-x-x-x-x-x-x-x-x-x-x-x-x-x-x-|
A:|-5-5-5-5-5-5-5-5/7-7-7-7/-9-9-9-9-4-4-4-4-4-4-4-4/5-5-5-5/7-7-7-7-|
E:|------------------------------------------------------------------|
[ Tab from: http://www.guitartabs.cc/tabs/m/my_chemical_romance/thank_you_for_the_venom_tab_ver_9.html ]
e:|-----------------------------------------------------------------|
B:|-----------------------------------------------------------------|
G:|-4-4-4-4-4-4-4-4/7-7-7-7-7-7-7-7-9-9-9-9-9-9-9-9/7-7-7-7-7-7-7-7-|
D:|-x-x-x-x-x-x-x-x-x-x-x-x-x-x-x-x-x-x-x-x-x-x-x-x-x-x-x-x-x-x-x-x-|
A:|-2-2-2-2-2-2-2-2/5-5-5-5-5-5-5-5-7-7-7-7-7-7-7-7/5-5-5-5-5-5-5-5-|
E:|-----------------------------------------------------------------|

Verse II:

Gtr I

e:|-----------------------------------------------------------------|
B:|-----------------------------------------------------------------|
G:|-4-------------------------------4-------------------------------|
D:|-4-4-4-4-4-4-4-4-4-4-4-4-4-7-7-7-4-4-4-4-4-4-4-4-4-4-4-4-4-7-9-9-|
A:|-2-2-2-2-2-2-2-2-2-2-2-2-2-5-7-7-2-2-2-2-2-2-2-2-2-2-2-2-2-5-7-7-|
E:|-----------------------------5-5---------------------------------|
PM    * * * * * * * * * * * *         * * * * * * * * * * * *

e:|-------------------------------------------------------------|
B:|-------------------------------------------------------------|
G:|-----------------------------7-7-7-7-7-7-7/6/3-3-3-3-3-3-3-3-|
D:|-4-4-4-4-4-4-5-4-4-4-4-4-4-5-x-x-x-x-x-x-x-x-x-x-x-x-x-x-x-x-|
A:|-4-4-4-4-4-4-5-4-4-4-4-4-4-5-5-5-5-5-5-5-5/4/1-1-1-1-1-1-1-1-|
E:|-2-2-2-2-2-2-3-2-2-2-2-2-2-3---------------------------------|

e:|------------------------------------------------------|
B:|------------------------------------------------------|
G:|-6-6--6-7-7--7-6-6--6-7-7--7-6-6--6-7-7--7-6-6--6-7-7-|
D:|-7-7--7-7-7--7-7-7--7-7-7--7-7-7--7-7-7--7-7-7--7-7-7-|
A:|-x-x--x-x-x--x-x-x--x-x-x--x-x-x--x-x-x--x-x-x--x-x-x-|
E:|-7-7--7-7-7--7-7-7--7-7-7--7-7-7--7-7-7--7-7-7--7-7-7-|

e:|-------------------------------------------------------------|
B:|-------------------------------------------------------------|
G:|-----------------------------7-7-7-7-7-7-7/6/3-3-3-3-3-3-3-3-|
D:|-4-4-4-4-4-4-5-4-4-4-4-4-4-5-x-x-x-x-x-x-x-x-x-x-x-x-x-x-x-x-|
A:|-4-4-4-4-4-4-5-4-4-4-4-4-4-5-5-5-5-5-5-5-5/4/1-1-1-1-1-1-1-1-|
E:|-2-2-2-2-2-2-3-2-2-2-2-2-2-3---------------------------------|

Gtr II

e:|-----------------------------------------------------------------|
B:|-----------------------------------------------------------------|
G:|-4-------------------------------4-------------------------------|
D:|-4-4-4-4-4-4-4-4-4-4-4-4-4-7-7-7-4-4-4-4-4-4-4-4-4-4-4-4-4-7-9-9-|
A:|-2-2-2-2-2-2-2-2-2-2-2-2-2-5-7-7-2-2-2-2-2-2-2-2-2-2-2-2-2-5-7-7-|
E:|-----------------------------5-5---------------------------------|
PM    * * * * * * * * * * * *         * * * * * * * * * * * *

e:|-------------------------------------------------------------|
B:|-------------------------------------------------------------|
G:|-----------------------------7-7-7-7-7-7-7/9/6-6-6-6-6-6-6-6-|
D:|-4-4-4-4-4-4-5-4-4-4-4-4-4-5-x-x-x-x-x-x-x-x-x-x-x-x-x-x-x-x-|
A:|-4-4-4-4-4-4-5-4-4-4-4-4-4-5-5-5-5-5-5-5-5/7/4-4-4-4-4-4-4-4-|
E:|-2-2-2-2-2-2-3-2-2-2-2-2-2-3---------------------------------|

e:|------------------------------------------------------------|
B:|------------------------------------------------------------|
G:|---------------9-9--9/1111-11---------------1414-14/1111-11-|
D:|-9-9--9-9-9--9-x-x--x--x-x--x-9-9--9-9-9--9--x-x--x--x-x--x-|
A:|-9-9--9-9-9--9-7-7--7/-9-9--9-9-9--9-9-9--9-1212-12/-9-9--9-|
E:|-7-7--7-7-7--7----------------7-7--7-7-7--7-----------------|

e:|--------------------------------------------------|
B:|--------------------------------------------------|
G:|-----------------------------7-7-7-7-7-7-7/9/11~~-|
D:|-4-4-4-4-4-4-5-4-4-4-4-4-4-5-x-x-x-x-x-x-x-x--x---|
A:|-4-4-4-4-4-4-5-4-4-4-4-4-4-5-5-5-5-5-5-5-5/7/-9~~-|
E:|-2-2-2-2-2-2-3-2-2-2-2-2-2-3----------------------|

Repeat Pre-Chorus

Repeat Chorus

Pre-Solo:

Gtr I

    
e:|------------------------------------------------|
B:|------------------------------------------------|
G:|------------------------------------------------|
D:|------------------------------------------------|
A:|-t9p5p2-t9p5p2-t9p5p2-t9p5p2-t9p5p2-t9p5p2-/12\-|
E:|------------------------------------------------|

Gtr II

e:|-------|
B:|-------|
G:|-4-(S)-|
D:|-4-(T)-|
A:|-2-(O)-|
E:|---(P)-|

Solo Pt I: 

Gtr I (Pick these notes extremely fast)

e:|-------------------------------------------------------------------|
B:|-------------------------------------------------------------------|
G:|-4-4-4-4-4-4-4-4/7-7-7-7-4/7-7-7-7-6-6-6-6/7-7-7-7-6-6-6-6-6-6-6-6-|
D:|-------------------------------------------------------------------|
A:|-------------------------------------------------------------------|
E:|-------------------------------------------------------------------|

e:|-----------------------------------------------------|
B:|-----------------------------------------------------|
G:|-6/7-7-7-7/9-9-9-9-7/9-9-9-9-9-9-9-9-7-7-7-7-6-6-6-6-|
D:|-----------------------------------------------------|
A:|-----------------------------------------------------|
E:|-----------------------------------------------------|

   [Elevens not ones]
e:|-----------------------------------------------------|
B:|-----------------------------------------------------|
G:|-1111111111111111/9/4-4-4-4-4/11111111-4/11111111/12-|
D:|-----------------------------------------------------|
A:|-----------------------------------------------------|
E:|-----------------------------------------------------|

e:|-----------------------------------------------|
B:|-----------------------------------------------|
G:|-9-9-9-9-7/9-9-9-9-7/9-9-9-9-11111111/12121212-|
D:|-----------------------------------------------|
A:|-----------------------------------------------|
E:|-----------------------------------------------|

Gtr II

e:|-----------------------------------------------------------------|
B:|-----------------------------------------------------------------|
G:|-4-4-4-4-4-4-4-4-4-4-4-4-4-4-4-4---------------------------------|
D:|-4-4-4-4-4-4-4-4-4-4-4-4-4-4-4-4-5-5-5-5-5-5-5-5-5-5-5-5-5-5-5-5-|
A:|-2-2-2-2-2-2-2-2-2-2-2-2-2-2-2-2-5-5-5-5-5-5-5-5-5-5-5-5-5-5-5-5-|
E:|---------------------------------3-3-3-3-3-3-3-3-3-3-3-3-3-3-3-3-|

e:|-----------------------------------------------------------------|
B:|-----------------------------------------------------------------|
G:|-----------------------------------------------------------------|
D:|---------------------------------4-4-4-4-4-4-4-4-8-8-8-8-8-8-8-8-|
A:|-4-4-4-4-4-4-4-4-4-4-4-4-4-4-4-4-4-4-4-4-4-4-4-4-8-8-8-8-8-8-8-8-|
e:|-1-1-1-1-1-1-1-1-1-1-1-1-1-1-1-1-2-2-2-2-2-2-2-2-6-6-6-6-6-6-6-6-|


e:|-----------------------------------------------------------------|
B:|-----------------------------------------------------------------|
G:|-4-4-4-4-4-4-4-4-4-4-4-4-4-4-4-4---------------------------------|
D:|-4-4-4-4-4-4-4-4-4-4-4-4-4-4-4-4-5-5-5-5-5-5-5-5-5-5-5-5-5-5-5-5-|
A:|-2-2-2-2-2-2-2-2-2-2-2-2-2-2-2-2-5-5-5-5-5-5-5-5-5-5-5-5-5-5-5-5-|
E:|---------------------------------3-3-3-3-3-3-3-3-3-3-3-3-3-3-3-3-|

e:|---------------------------------|
B:|---------------------------------|
G:|---------------------------------|
D:|---------------------------------|
A:|-4-4-4-4-4-4-4-4-4-4-4-4-4-4-4-4-|
e:|-1-1-1-1-1-1-1-1-1-1-1-1-1-1-1-1-|

Solo:

e:|-------------------------------12-14-15-14-15/17-|
B:|-------------------12-14-15-14-------------------|
G:|-11-12-14-12-11-14-------------------------------|
D:|-------------------------------------------------|
A:|-------------------------------------------------|
E:|-------------------------------------------------|

e:|-17/19-17~-14h15p14----14-14~-14h15p14----14----------|
B:|--------------------17-----------------17----17-15-14-|
G:|------------------------------------------------------|
D:|------------------------------------------------------|
A:|------------------------------------------------------|
E:|------------------------------------------------------|

e:|-19-15-14----14----------|
B:|----------17----17-15-14-|
G:|-------------------------|
D:|-------------------------|
A:|-------------------------|
E:|-------------------------|

e:|-10p9h7h9h7----7-------------------------------------|
B:|------------10---10p8h10p8p7-8p7---7-----------------|
G:|---------------------------------9---9p7h9p7p6h7p6---|
D:|---------------------------------------------------9-|
A:|-----------------------------------------------------|
E:|-----------------------------------------------------|


e:|------------------------------|
B:|------------------------------|
G:|-6p4---4----------------------|
D:|-----7---7p5h7p5h4h5p4/2------|
A:|-------------------------4^~~-|
E:|------------------------------|

Gtr II

e:|---------------------------------|
B:|---------------------------------|
G:|---------------------------------|
D:|-4-4-4-4-4-4-4-4-8-8-8-8-8-8-8-8-|
A:|-4-4-4-4-4-4-4-4-8-8-8-8-8-8-8-8-|
e:|-2-2-2-2-2-2-2-2-6-6-6-6-6-6-6-6-|

e:|-----------------------------------------------------------------|
B:|-----------------------------------------------------------------|
G:|-----------------------------------------------------------------|
D:|-5-5-5-5-5-5-5-5-5-5-5-5-5-5-5-5-2-2-2-2-2-2-2-2-2-2-2-2-2-2-2-2-|
A:|-5-5-5-5-5-5-5-5-5-5-5-5-5-5-5-5-2-2-2-2-2-2-2-2-2-2-2-2-2-2-2-2-|
e:|-3-3-3-3-3-3-3-3-3-3-3-3-3-3-3-3-0-0-0-0-0-0-0-0-0-0-0-0-0-0-0-0-|

e:|------------------------------------------------------|
B:|------------------------------------------------------|
G:|---------------------------------2-2-2-2-2-2-2-2------|
D:|-3-3-3-3-3-3-3-3-4-4-4-4-4-4-4-4-2-2-2-2-2-2-2-2------|
A:|-3-3-3-3-3-3-3-3-4-4-4-4-4-4-4-4-0-0-0-0-0-0-0-0-4^~~-|
E:|-1-1-1-1-1-1-1-1-2-2-2-2-2-2-2-2----------------------|
PM  * * * * * * * * * * * * * * * * * * * * * * * *

After Solo:

Gtr I

e:|-----------------------------------------------------------------|
B:|-----------------------------------------------------------------|
G:|-----------------------------------------------------------------|
D:|-----------------------------------------------------------------|
A:|-----------------------------------------------------------------|
e:|-3-3-3-3-3-3-3-3-5-5-5-5-7-7-7-7-6-6-6-6-6-6-6-6-7-7-7-7-9-9-9-9-|

e:|---------------------------------|
B:|---------------------------------|
G:|---------------------------------|
D:|---------------------------------|
A:|---------------------------------|
e:|-3-3-3-3-3-3-3-3-5-5-5-5-7-7-7-7-|

Both Gtr's

e:|-----------------------------|
B:|-----------------------------|
G:|-----------------------------|
D:|-------------------------9-9-|
A:|-9-9-9-9-9-9-9-9-9-9-9-9-9-9-|
e:|-6-6-6-6-6-6-6-6-7-7-7-7-7-7-|
PM  * * * * * * * * * * * *

Repeat Pre-Chorus

Repeat Chorus

Final Chorus:

Gtr I (x2)

e:|-----------------------------------------------------------------|
B:|-8-8-8-8-8-8-8-8-7-7-7-7-7-7-7-7-8-8-8-8-8-8-8-8-7-7-7-7-7-7-7-7-|
G:|-7-7-7-7-7-7-7-7-7-7-7-7-7-7-7-7-7-7-7-7-7-7-7-7-7-7-7-7-7-7-7-7-|
D:|-x-x-x-x-x-x-x-x-x-x-x-x-x-x-x-x-x-x-x-x-x-x-x-x-x-x-x-x-x-x-x-x-|
A:|-5-5-5-5-5-5-5-5-5-5-5-5-5-5-5-5-4-4-4-4-4-4-4-4-4-4-4-4-4-4-4-4-|
E:|-----------------------------------------------------------------|

e:|-----------------------------------------------------------------|
B:|-2-2-2-2-2-2-2-2-3-3-3-3-3-3-3-3---------------------------------|
G:|-4-4-4-4-4-4-4-4-4-4-4-4-4-4-4-4-6-6-6-6-6-6-6-6-7-7-7-7-7-7-7-7-|
D:|-4-4-4-4-4-4-4-4-4-4-4-4-4-4-4-4-5-5-5-5-5-5-5-5-5-5-5-5-5-5-5-5-|
A:|-2-2-2-2-2-2-2-2-2-2-2-2-2-2-2-2-5-5-5-5-5-5-5-5-5-5-5-5-5-5-5-5-|
E:|---------------------------------3-3-3-3-3-3-3-3-3-3-3-3-3-3-3-3-|

Gtr II (Timing's off here but I'm sure you can figure it out)

e:|---------------------------------------------------------|
B:|---------------------------------------------------------|
G:|-7-7-7-7/9-9/1111-6-6-6-6/9-9/1111-11/9-7/9/7-11/9-7/9/7-|
D:|-x-x-x-x-x-x--x-x-x-x-x-x-x-x--x-x--x-x-x-x-x--x-x-x-x-x-|
A:|-5-5-5-5/7-7/-9-9-4-4-4-4/7-7/-9-9--9/7-5/7/5--9/7-5/7/5-|
E:|---------------------------------------------------------|

e:|---------------------------------------------------|
B:|---------------------------------------------------|
G:|-14/12-11/12/11-14/12-11/12/11-9/11/9/7-9/11/9/7/6-|
D:|--x--x--x--x--x--x--x--x--x--x-x--x-x-x-x--x-x-x-x-|
A:|-12/10--9/10/-9-12/10--9/10/-9-7/-9/7/5-7/-9/7/5/4-|
E:|---------------------------------------------------|

End with:

Gtr I

e:|-------------------------------------|
B:|-------------------------------------|
G:|-4---------------------------------4-|
D:|-4-----------------0h2-------------4-|
A:|-2-2-4-5-4-2-----------4-5-4-2-----2-|
E:|-------------3-2-3-------------3-2---|
PM    * * * * * * * *     * * * * * *

Gtr II

e:|------------|
B:|------------|
G:|-4--------4-|
D:|-4--------4-|
A:|-2--------2-|
E:|------------|
Comments