My Chemical Romance - Thank You For The Venom Chords & Tabs

 

Thank You For The Venom Chords & Tabs

My Chemical Romance Chords & Tabs

Version: 8 Type: Tab 0 ratings
1 star 2 stars 3 stars 4 stars 5 stars
comments

Thank You For The Venom Tab

   
----------------------------------------------------------------------------
		Thank You For The Venom - My Chemical Romance
----------------------------------------------------------------------------
Tabbed by:ak Gitaroo Man
Email:alvinoncillo@hotmail.com

Tuning:normal EADGBe 

this is only the intro
this has the lead and rhythm.  lead is top line.  rhythm is bottom line.

e|-------------------------------------------------------------------------|
B|-------------------------------------------------------------------------|
G|--------------------------------------------------------------------------|
D|------------------------------------2---4---5-------2---0---4------------|
A|2-4-5-2-------5/7-----5-4-2-----2-2-------------4-4----------------------|
E|--------3-2-3-----2-3-------3-2-0-0---0---0-----2-2---2---2--------------|
 |. . . . . . .     . . . . . . . . .   .   .     . .   .   .              |
e|-------------------------------------------------------------------------|
B|-------------------------------------------------------------------------|
G|4------------------------------------------------------------------------|
D|4-------------------------------2-2-------------4-4----------------------|
A|2-------------------------------2-2-------------4-4----------------------|
E|--------------------------------0-0-------------2-2----------------------|


[ Tab from: http://www.guitartabs.cc/tabs/m/my_chemical_romance/thank_you_for_the_venom_tab_ver_8.html ]
e|-------------------------------------------------------------------------|
B|-------------------------------------------------------------------------|
G|-------------------------------------------------------------------------|
D|--------------4/7---5---4---2p0-----2---0---4----------------------------|
A|2-4-5-2-------------------------2-2-------------4-4---4-4----------------|
E|--------3-2-3-----0---0---0-----0-0---0---0-----2-2---2-2----------------|
 |. . . . . . .     .   .   .     . .   .   .     . .   . .                |
e|-------------------------------------------------------------------------|
B|-------------------------------------------------------------------------|
G|4------------------------------------------------------------------------|
D|4-------------------------------2-2-------------4-4---4-4----------------|
A|2-------------------------------2-2-------------4-4---4-4----------------|
E|--------------------------------0-0-------------2-2---2-2----------------|



e|-------------------------------------------------------------------------|
B|-------------------------------------------------------------------------|
G|-------------------------------------------------------------------------|
D|------------------------------------2---4---5-------2---0---4------------|
A|2-4-5-2-------5/7-----5-4-2-----2-2-------------4-4----------------------|
E|--------3-2-3-----2-3-------3-2-0-0---0---0-----2-2---2---2--------------|
 |. . . . . . .     . . . . . . . . .   .   .     . .   .   .              |
e|-------------------------------------------------------------------------|
B|-------------------------------------------------------------------------|
G|7-7-7-7-7-7-7-7-7-7-7-7-6-6-6-6-7-7-7-7-7-7-7-7-9-9-9-9-11111111---------|
D|9-9-9-9-9-9-9-9-9-9-9-9-9-9-9-9-9-9-9-9-9-9-9-9-9-9-9-9-9-9-9-9----------|
A|-------------------------------------------------------------------------|
E|-------------------------------------------------------------------------|



e|-------------------------------------------------------------------------|
B|-------------------------------------------------------------------------|
G|------------------------------------------------------------^------------|
D|--------------4/7---5---4---2p0-----2---0---4-------2---0---4ph\---------|
A|2-4-5-2-------------------------2-2-------------4-4----------------------|
E|--------3-2-3-----0---0---0-----0-0---0---0-----2-2---2---2--------------|
 |. . . . . . .     .   .   .     . .   .   .     . .   .   .              |
e|-------------------------------------------------------------------------|
B|-------------------------------------------------------------------------|
G|7-7-7-7-7-7-7-7-7-7-7-7-6-6-6-6-12121212111111117-7-7-7-6-6-6-6----------|
D|9-9-9-9-9-9-9-9-9-9-9-9-9-9-9-9-9-9-9-9-9-9-9-9-9-9-9-9-9-9-9-9----------|
A|-------------------------------------------------------------------------|
E|-------------------------------------------------------------------------|


| .  palm-mute
| ^  quick half bend
| ph pinch harmonic
| /  slide up
| \  slide down
| h  hammer-on
| p  pull-off
| ~  vibrato
| +  harmonic
| x  Mute note
============================================================================
Comments