My Chemical Romance - Thank You For The Venom Chords & Tabs

 

Thank You For The Venom Chords & Tabs

My Chemical Romance Chords & Tabs

Version: 4 Type: Tab 0 ratings
1 star 2 stars 3 stars 4 stars 5 stars
comments

Thank You For The Venom Tab

Standard Tuning
Rythm Guitar Plays Chords
E|-------------|-----------------|---------------|---------------|
B|-------------|-----------------|---------------|---------------|
G|-------------|-----------------|---------------|---------------|
D|-------------|-----------------|----2---4---5--|----2---0---4--|
A|2-4-5-1-2----|5/7---2-5-4-2-1--|---------------|---------------|
E|----------2-3|----3-----------3|0-0---0---0---0|2-2---2---2---2|

e|-------------|-----------------|----------------------|
B|-------------|-----------------|----------------------|
G|-------------|-----------------|----------------------|
D|-------------|4/7---5---4---2-0|----2---0---4---44--44|
A|2-4-5-1-2----|-----------------|----------------44--44|
E|----------2-3|----0---0---0----|0-0---2---3---2-22--22|
[ Tab from: http://www.guitartabs.cc/tabs/m/my_chemical_romance/thank_you_for_the_venom_tab_ver_4.html ]
Comments