My Chemical Romance - Thank You For The Venom Chords & Tabs

 

Thank You For The Venom Chords & Tabs

My Chemical Romance Chords & Tabs

Version: 3 Type: Tab 0 ratings
1 star 2 stars 3 stars 4 stars 5 stars
comments

Thank You For The Venom Tab

My Chemical Romance :: Thank You for the Venom

tabbed by sean y.

x-pm

Intro::[2x]
[ Tab from: http://www.guitartabs.cc/tabs/m/my_chemical_romance/thank_you_for_the_venom_tab_ver_3.html ]
----------------------------------------------------------------------|
----------------------------------------------------------------------|
-4--------------------------------------------------------------------|
-4---------------2------------------22-44-55----22-00-44--------------|
-2-2-5-4-2-----5------5-4-2-1-----------------------------------------|
-----------2-3-----33---------2--00----------22-----------------------|
   x x x x x x     x x x x x x x xx   x   x   xx   x   x

----------------------------------------------------------------------|
----------------------------------------------------------------------|
-4----------------2--0------------------------------------------------|
-4--------------4------4--2-------22-00-44----------------------------|
-2-2-5-4-2------------------------------------------------------------|
-----------2-3-----0--0--0--0--22----------22-22----------------------|
   x x x x x x    x   x   x   x     x   x    xx xx


email :: prelewd@gmail.com
Comments