My Chemical Romance - Thank You For The Venom Chords & Tabs

 

Thank You For The Venom Chords & Tabs

My Chemical Romance Chords & Tabs

Version: 2 Type: Tab 0 ratings
1 star 2 stars 3 stars 4 stars 5 stars
comments

Thank You For The Venom Tab

My Chemical Romance
Thank You For The Venom

tabbed by valo138@gmail.com

Standard tuning

(.) - palm mute
(p) - pull off
(h) - hammer on
(/) - slide up
(*) - pinch harmonic
(b) - bend

This is the intro for the lead guitar. I'm working on the rest.

|-----------------------------------------------------------|
|-----------------------------------------------------------|
|-----------------------------------------------------------|
|-4-0---------0-2-----0---------------2p0-4p0-5-------2-0-4-|
|-2---0-2---------0-2---4-2------2-2-------------4-4--------|
|---------3-0---------------5-3--0-0-------------2-2--------|
      . . . .     . . . . . . .  . .             . .
[ Tab from: http://www.guitartabs.cc/tabs/m/my_chemical_romance/thank_you_for_the_venom_tab_ver_2.html ]
|-----------------------------------------------------|
|-----------------------------------------------------|
|-----------------------------------------------------|
|-4-0---------5/7---5---4---2p0-------2-0-4-----------|
|-2---0-2---------0---0---0------4-4---------5-5--5-5-|
|---------3-0--------------------2-2---------3-3--3-3-|
      . . . .     .   .   .      . .         . .  . .

|-----------------------------------------------------|
|-----------------------------------------------------|
|-----------------------------------------------------|
|-----0---------0h2-----0-------------2-4-5-----2-0-4-|
|-2-4---0-2---------0-2---4-2-------------------------|
|-----------3-0---------------5-3-0-0-------2-2-------|
  . . . . . . .     . . . . . . . . .       . .

|-----------------------------------------------------|
|-----------------------------------------------------|
|--------------------------------------------------*--|
|-----0---------5/7---5---4---2p0----2-0-4---------2--|b
|-2-4---0-2---------0---0---0------------------5-4----|
|-----------3-0-------------------2-2------3-3--------|
  . . . . . . .     .   .   .     . .      . .

Questions/comments email me at valo138@gmail.com
Comments