My Chemical Romance - Skylines And Turnstiles Chords & Tabs

 

Skylines And Turnstiles Chords & Tabs

My Chemical Romance Chords & Tabs

Version: 1 Type: Tab 0 ratings
1 star 2 stars 3 stars 4 stars 5 stars
comments

Skylines And Turnstiles Tab

Band: My Chemical Romance.
Song: Skylines And Turnstiles.
Album: I Brought You My Bullets, You Brought Me Your Love.
Released: 2002

Okay this is probably one of the only my chemical romance songs I haven't seen tabbed
yet, so I decided to try and tab it myself. I only have the intro down right now.

Tuning: Standard


e|----------------------------------------|
B|--666-555-333-111-00-11-----------------|
G|----------------------------------------|
D|----------------------------------------| X2
A|----------------------------------------|
E|----------------------------------------|
Now, depending on which version of the song you're listening to, you play this right
after the second time of playing that ^^
[ Tab from: http://www.guitartabs.cc/tabs/m/my_chemical_romance/skylines_and_turnstiles_tab.html ]
e|----------------------------------------|
B|--666-888-333-111-00-11-----------------|
G|----------------------------------------|
D|----------------------------------------| x1
A|----------------------------------------|
E|----------------------------------------|


e|----------------------------------------|
B|--666-555-333-111-00-11-----------------|
G|----------------------------------------|
D|----------------------------------------| 
A|----------------------------------------|
E|----------------------------------------|
In the older version of the song, the top bar is played seven times straight, but in
the newer version, you play B|-666-888-333... every third time. Listen to each song,
you'll know what i mean.

Pre-verse.
e|----------------------------------------|
B|----------------------------------------|
G|----------------------------------------|
D|--6-------6-----------------------------| X2
A|--6-6666666-----------------------------|
E|--4-4444444-----------------------------|
pm.   ......     "you're not in this alone..."


That's all I have right now but I'm sure it's right, I played along with the song and
it sounds perfect. Enjoy guys!!
MY CHEMICAL ROMANCE = BEST BAND EVER!!
Comments