My Chemical Romance - Our Lady Of Sorrows Chords & Tabs

 

Our Lady Of Sorrows Chords & Tabs

My Chemical Romance Chords & Tabs

Version: 1 Type: Tab 0 ratings
1 star 2 stars 3 stars 4 stars 5 stars
comments

Our Lady Of Sorrows Tab

   
You don't have this artist in your list but they are a real band. Go to
http://www.mychemicalromance.com/  and read about them. They are from USA, also.

Artist: My Chemical Romance
Song: Our Lady of Sorrows
Album: I Brought You My Bullets, You Brought Me Your Love


Intro:
(0:01)
e|----------------------------------------------------|
B|----------------------------------------------------|
G|----------------------------------------------------|
D|-11-----------------------11-10---------------------|
A|-11-----------------------11-10---------------------|
E|--9--9-9-9--9-9-9--9-9-----9--8--8-8-8--8-8-8--8-8--|
P.M.   .....  .....  ...           .....  .....  ...


e|----------------------------------------------------|
B|----------------------------------------------------|
G|----------------------------------------------------|
D|-7------------------------7--10---------------------|
A|-7------------------------7--10---------------------|
E|-5---5-5-5--5-5-5--5-5----5---8--8-8-8--8-8-8--8-8--|
P.M.   .....  .....  ...           .....  .....  ...

(0:07)
e|--------------------------|--------------------------|
B|--------------------------|--------------------------|
G|--------------------------|--------------------------|
D|-11-----------------------|--10----------------------|
A|-11-----------------------|--10----------------------|
E|--9--9-9-9--9-9-9--9-9-9--|---8--8-8-8--8-8-8--8-8-8-|
P.M.   .....  .....  .....         .....  .....  .....


e|--------------------------|--------------------------|
B|--------------------------|--------------------------|
G|--------------------------|--------------------------|
D|--------------------------|--------------------------|
A|-7------------------------|-10-10-10-10-10-10-10-10--|
E|-5---5-5-5--5-5-5--5-5-5--|--8--8--8--8--8--8--8--8--|
P.M.   .....  .....  .....    .. .. .. .. .. .. .. ..


Verse:
(0:13)

Guitar 1:
e|---------------------------|
B|---------------------------|
G|---------------------------|
D|--11-11-11-11-11-11-11-11--|
A|--11-11-11-11-11-11-11-11--|
E|---9--9--9--9--9--9--9--9--|

"We could be perfect.."


e|---------------------------|
B|---------------------------|
G|---------------------------|
D|--10-10-10-10-10-10-10-10--|
A|--10-10-10-10-10-10-10-10--|
E|---8--8--8--8--8--8--8--8--|



e|--------------------|
B|--------------------|
G|--------------------|
D|---7-7-7-7-7-7-7-7--|
A|---7-7-7-7-7-7-7-7--|
E|---5-5-5-5-5-5-5-5--|


[ Tab from: http://www.guitartabs.cc/tabs/m/my_chemical_romance/our_lady_of_sorrows_tab.html ]
e|---------------------------|
B|---------------------------|
G|---------------------------|
D|--10-10-10-10-10-10-10-10--|
A|--10-10-10-10-10-10-10-10--|
E|---8--8--8--8--8--8--8--8--|


Guitar 2 (over verse):
(0:30)
e|--------------------|
B|--------------------|
G|-9-8-9-11--9-8-9-11-|
D|--------------------|
A|--------------------|
E|--------------------|

"Laceration gravity.."

(0:36)
e|--------------------|
B|--------------------|
G|-9-8-9-11--9-8-9----|
D|--------------------|
A|--------------------|
E|--------------------|

"Please understand it has to be this way.."

Chorus:
(0:40)
e|---------|
B|---------|
G|-6-------|
D|-6-6-7-4-|
A|-4-6-7-4-|
E|---4-5-2-|

"Stand up.."

Bridge:
(1:21)

Guitar 1:
e|---------------------------------------|
B|---------------------------------------|
G|-6-6-6-6--2-2-2-2-----------4-4-5-5----|
D|-6-6-6-6--2-2-2-2--4-4-4-4--4-4-5-5----|
A|-4-4-4-4--0-0-0-0--4-4-4-4--2-2-3-3----|
E|-------------------2-2-2-2-------------|

"Trust, you said.."

e|---------------------------------------|
B|---------------------------------------|
G|-6-6-6-6--2-2-2-2-----------4-4-5-5----|
D|-6-6-6-6--2-2-2-2--4-4-4-4--4-4-5-5----|
A|-4-4-4-4--0-0-0-0--4-4-4-4--2-2-3-3----|
E|-------------------2-2-2-2-------------|

(1:34)
e|-----------------------------|
B|-----------------------------|
G|-2-2-2--4-4-4--6-6-6--6-6----|
D|-2-2-2--4-4-4--6-6-6--6-6-6--|
A|-0-0-0--2-2-2--4-4-4--4-4-6--|
E|--------------------------4--|

e|-----------------------------|
B|-----------------------------|
G|-2-2-2--4-4-4---------6-6----|
D|-2-2-2--4-4-4--6-6-6--6-6-6--|
A|-0-0-0--2-2-2--6-6-6--4-4-6--|
E|---------------4-4-4------4--|


Guitar 2:
(1:20)
e|-------------------------------------------------------|
B|-------------------------------------------------------|
G|-9-9-8-8-9~~-9-9-8-8-9~~--9-9-8-8-9~~--9-9-8-8-9~~-8-6-|
D|-------------------------------------------------------|
A|-------------------------------------------------------|
E|-------------------------------------------------------|

^ Repeat 4 times


Ending
(1:57)
e|--------------------------------|
B|--------------------------------|
G|-6----------6-----------6-6-6---|
D|-6-6--7--4--6--6--7--4--6-6-6---|
A|-4-6--7--4--4--6--7--4--4-4-4---|
E|---4--5--2-----4--5--2----------|


Song Order:

Intro 1x
Verse 4x
Chorus 4x
Verse 4x
Chorus 4x
Bridge 1x
Chorus 6x
Ending 1x

The intro and verse can also be played as C# on the A string and following from there,
but I like to play it on the low E.
Comments