My Chemical Romance - Jetset Life Is Gonna Kill You Chords & Tabs

 

Jetset Life Is Gonna Kill You Chords & Tabs

My Chemical Romance Chords & Tabs

Version: 4 Type: Tab

Jetset Life Is Gonna Kill You Tab

   
Key

* Palm Mute
x String Mute
<#> Natural Harmonic
~ Let Ring
/ Slide
//// Pick Scrape


Gtr I: Ray Toro: Standard Tuning (e,B,G,D,A,e)
Gtr II: Frank Iero: Standard Tuning (e,B,G,D,A,e)

Intro

Gtr I


Just keep strumming this chord softly

e:|-5-|
B:|-6-|
G:|-7-|
D:|---|
A:|---|
E:|---|

Verse I (Clean with some sort of effect)

Gtr I 

e:|----------------------------------|
B:|----------------------------------|
G:|-77777777-55555555-33333333333333-| 
D:|-77777777-55555555-33333333333333-|
A:|----------------------------------|
E:|----------------------------------|

Gtr II

e:|--------------------------------------------|
B:|-66666666-----------------------------------|
G:|-77777777-9-9-9-9-9-9-9-9--7777777777777777-|
D:|-xxxxxxxx-1010101010101010-8888888888888888-|
A:|-55555555-x-x-x-x-x-x-x-x--xxxxxxxxxxxxxxxx-|
E:|----------8-8-8-8-8-8-8-8--6666666666666666-|


At the end of the verse both Gtr's play this (All distorted from here)

e:|-------------|
B:|-------------|
G:|-3/5555--555-|
D:|-3/5555--555-|
A:|-1/3333--333-|
E:|-------------|


Chorus

Gtr I 

e:|--------------------------------------|
B:|--------------------------------------|
G:|-7-7777----6-6666----33333333---------|
D:|-7-7777-33-6-6666-55-33333333-5555-55-|
A:|-5-5555-33-4-4444-55-11111111-5555-55-|
E:|--------11--------33----------3333-33-|

Gtr II 

e:|-------------------------------------------|
B:|-------------------------------------------|
G:|-7-77-------6-66-12/11----33333333---------|
D:|-7-77---333-6-66-x--x--55-33333333-5555-55-|
A:|-5-55---333-4-44-10/9--55-11111111-5555-55-|
E:|--------111------------33----------3333-33-|

Post Chorus

Both Gtrs

e:|--------------------|
B:|--------------------|
G:|-------7~~~~--7~~~~-|
D:|-5-5/7-7~~~~--7~~~~-|
A:|-5-5/7-5~~~~--5~~~~-|
E:|-3-3/5--------------|

Just before the 2nd verse Gtr I plays:

e:|----------|
B:|----------|
G:|-----<7>--|
D:|-<7>------|
A:|----------|
E:|----------|

Verse II

Both Gtr's

e:|-------------------------------------------|
B:|-------------------------------------------|
G:|-----7----7--7-----5----5--5-----3----3--3-|
D:|-7777777777777-5555555555555-3333333333333-|
A:|-5555555555555-3333333333333-1111111111111-|
E:|-------------------------------------------|
PM  **** **** **  **** **** **  **** **** **

e:|----------------------------|
B:|----------------------------|
G:|-----2----2--2----2----2--2-|
D:|-22222222222222222222222222-|
A:|-00000000000000000000000000-|
E:|----------------------------|
PM  **** **** ** **** **** **

After this has been played once Gtr I Changes and plays this
(Gtr II Carries on playing previous riff)
[ Tab from: http://www.guitartabs.cc/tabs/m/my_chemical_romance/jetset_life_is_gonna_kill_you_tab_ver_4.html ]
e:|--------------------------------------------------------------------|
B:|--------------------------------------------------------------------|
G:|-77777777-99999999-101010101010101010101010101010101010101010101010-|
D:|-xxxxxxxx-xxxxxxxx-x-x-x-x-x-x-x-x-x-x-x-x-x-x-x-x-x-x-x-x-x-x-x-x--|
A:|-55555555-77777777-8-8-8-8-8-8-8-8-8-8-8-8-8-8-8-8-8-8-8-8-8-8-8-8--|
E:|--------------------------------------------------------------------|

e:|--------------------------------------------|
B:|--------------------------------------------|
G:|-1212121212121212-12/14/12-1010101010101010-|
D:|-x-x-x-x-x-x-x-x--x--x--x--x-x-x-x-x-x-x-x--|
A:|-1010101010101010-10/12/10-8-8-8-8-8-8-8-8--|
E:|--------------------------------------------|

Repeat Chorus

Bridge Pt I

Gtr I Clean with a weird effect


e:|-10---------10-------------10--------10------6------6--------10-----9-|
B:|---10---10----10---10----11--11----11--11---8--8---8--8----11-----8---|
G:|-----10---------10-----12-------12---------9------9------12-----9-----|
D:|----------------------------------------------------------------------|
A:|----------------------------------------------------------------------|
E:|----------------------------------------------------------------------|
   

e:|-----5-------5---------10---------10--------6-------6----------10---9-|
B:|---6---6---6---6-----11--11-----11---11----8--8----8--8-----11----8---|
G:|-7-------7--------12---------12----------9-------9-------12-----9-----|
D:|----------------------------------------------------------------------|
A:|----------------------------------------------------------------------|
E:|----------------------------------------------------------------------|


Bridge Pt II

I think Gtr I Just plays Bridge pt I distorted (Not sure though)

Gtr II Frank

e:|-----------------------------------------------------------------|
B:|-----------------------------------------------------------------|
G:|-----------------------------------------------------------------|
D:|-5-5-5-5-5-5-5-5-7-7-7-7-7-7-7-7-8-8-8-8-8-8-8-8-8-8-8-8-8-8-8-8-|
A:|-5-5-5-5-5-5-5-5-7-7-7-7-7-7-7-7-8-8-8-8-8-8-8-8-8-8-8-8-8-8-8-8-|
e:|-3-3-3-3-3-3-3-3-5-5-5-5-5-5-5-5-6-6-6-6-6-6-6-6-6-6-6-6-6-6-6-6-|
PM  * * * * * * * * * * * * * * * * * * * * * * * * * * * * * * * *

Repeat chorus

About half way through chorus, both Gtr's riffs change to something like this not 100% sure though:

Gtr I

e:|---------------------------------------------|
B:|---------------------------------------------|
G:|-7777------6/7/9/11/7~--33-3/5/3333----------|
D:|-7777-3333-x-x-x-x--x---33-x-x-xxxx-55555555-|
A:|-5555-3333-4/5/7/9-/5~--11-1/3/1111-55555555-|
E:|------1111--------------------------33333333-|

Gtr II

e:|---------------------------------------|
B:|---------------------------------------|
G:|-7777------6666------33333333----------|
D:|-7777-3333-6666-5555-33333333-55555555-|
A:|-5555-3333-4444-5555-11111111-55555555-|
E:|------1111------3333----------33333333-|


The after a while Gtr I Plays Bridge Pt I again

End With

Both Gtr's

e:|-----------|
B:|-----------|
G:|-----------|
D:|-5-5~~~~~~-|
A:|-5-5~~~~~~-|
E:|-3-3~~~~~~-|

Gtr II

e:|-------------------------------------------------------|
B:|-------------------------------------------------------|
G:|-------------------------------------------------------|
D:|-------------------------------------------------------|
A:|-------------------------------------------------------|
e:|-//////////////////////Pick-Scrape////////////////////-|