My Chemical Romance - Jetset Life Is Gonna Kill You Chords & Tabs

 

Jetset Life Is Gonna Kill You Chords & Tabs

My Chemical Romance Chords & Tabs

Version: 2 Type: Tab

Jetset Life Is Gonna Kill You Tab

Heres my contribution to Mcr
This is the solo to "the Jetset Life is gonna kill you" This is my first tab and Im 
sure its 99% accurate.

e-10-----------10---------------10-----------10--------6-------6------------|
B---10---10------10----10-----11---11------11--11-----8--8----8--8----------|
G------10-----------10------12-----------12----------9-------9--------------|
D---------------------------------------------------------------------------|
A---------------------------------------------------------------------------|
E---------------------------------------------------------------------------|
   pull the plug........
[ Tab from: http://www.guitartabs.cc/tabs/m/my_chemical_romance/jetset_life_is_gonna_kill_you_tab_ver_2.html ]
e------10---9|-----5------5----------10----------10--------6-------6--------|
B----11----8-|----6--6---6--6------11--11-----11---11-----8--8----8--8------|
G--12-----9--|---7------7--------12---------12-----------9-------9----------|
D------------|--------------------------------------------------------------|
A------------|--------------------------------------------------------------|
E------------|--------------------------------------------------------------|

e------10------9-|-----------------------------------------------------------|
B----11------8---|-----------------------------------------------------------|
G--12-------9----|-----------------------------------------------------------|
D----------------|-----------------------------------------------------------|
A----------------|-----------------------------------------------------------|
E----------------|-----------------------------------------------------------|


I you dont believe this is accurate try playing it with the song.
Please Rate!!!!!
Please Rate!!!