My Chemical Romance - Jetset Life Is Gonna Kill You Chords & Tabs

 

Jetset Life Is Gonna Kill You Chords & Tabs

My Chemical Romance Chords & Tabs

Version: 1 Type: Tab 0 ratings
1 star 2 stars 3 stars 4 stars 5 stars
comments

Jetset Life Is Gonna Kill You Tab

   
Song: The Jetset Life Is Gonna Kill You
Artist: My Chemical Romance
Album: Three Cheers For Sweet Revenge

Key:

* Palm Mute
x String Mute
<#> Natural Harmonic
~ Let Ring
/ Slide
//// Pick Scrape

Gtr I: Ray Toro: Standard Tuning (e,B,G,D,A,e)
Gtr II: Frank Iero: Standard Tuning (e,B,G,D,A,e)

Intro:

Gtr II

There is a REALLY strange effect used for this, I don't know what it is though.

Just keep strumming this chord softly

e:|-5-|
B:|-6-|
G:|-7-|
D:|---|
A:|---|
E:|---|

Verse I:

Gtr I (x4)

e:|------------------------------------------------------------------|
B:|-6-6-6-6-6-6-6-6-6-6-6-6-6-6-6-6----------------------------------|
G:|-7-7-7-7-7-7-7-7-7-7-7-7-7-7-7-7-9-9-9-9-9-9-9-9-9-9-9-9-9-9-9-9--|
D:|-x-x-x-x-x-x-x-x-x-x-x-x-x-x-x-x-10101010101010101010101010101010-|
A:|-5-5-5-5-5-5-5-5-5-5-5-5-5-5-5-5-x-x-x-x-x-x-x-x-x-x-x-x-x-x-x-x--|
E:|---------------------------------8-8-8-8-8-8-8-8-8-8-8-8-8-8-8-8--|

e:|-----------------------------------------------------------------|
B:|-----------------------------------------------------------------|
G:|-7-7-7-7-7-7-7-7-7-7-7-7-7-7-7-7-7-7-7-7-7-7-7-7-7-7-7-7-7-7-7-7-|
D:|-8-8-8-8-8-8-8-8-8-8-8-8-8-8-8-8-8-8-8-8-8-8-8-8-8-8-8-8-8-8-8-8-|
A:|-x-x-x-x-x-x-x-x-x-x-x-x-x-x-x-x-x-x-x-x-x-x-x-x-x-x-x-x-x-x-x-x-|
e:|-6-6-6-6-6-6-6-6-6-6-6-6-6-6-6-6-6-6-6-6-6-6-6-6-6-6-6-6-6-6-6-6-|

Gtr II (x4)

e:|-5--5--5--5--5--5--5--5--5--5--5--5--5~---------|
B:|-6--6--6--6--6--6--6--6--6--6--6--6------6~-----|
G:|-7--7--7--7--7--7--7--7--7--7--7--7----------7~-|
D:|------------------------------------------------|
A:|------------------------------------------------|
E:|------------------------------------------------|

Pre-Chorus:

Gtr I

e:|------------------|
B:|------------------|
G:|-3/5-5-5-5--5-5-5-|
D:|-3/5-5-5-5--5-5-5-|
A:|-1/3-3-3-3--3-3-3-|
E:|------------------|

Gtr II

e:|---------------------|
B:|---------------------|
G:|-10/12121212-12/1111-|
D:|--x--x-x-x-x--x--x-x-|
A:|--8/10101010-10/-9-9-|
E:|---------------------|

Chorus:

Gtr I (x2)

e:|-----------------------------------------------------------------|
B:|-----------------------------------------------------------------|
G:|-7-7-7-7-7-7-----6-6-6-6-6-6-----3-3-3-3-3-3-3-3-----------------|
D:|-7-7-7-7-7-7-3-3-6-6-6-6-6-6-5-5-3-3-3-3-3-3-3-3-5-5-5-5-5-5-5-5-|
A:|-5-5-5-5-5-5-3-3-4-4-4-4-4-4-5-5-1-1-1-1-1-1-1-1-5-5-5-5-5-5-5-5-|
E:|-------------1-1-------------3-3-----------------3-3-3-3-3-3-3-3-|

Gtr II (x2)

e:|------------------------------------------------------------|
B:|------------------------------------------------------------|
G:|-141414141414-1010------------12/11111111-1212/1010/9-9-9-9-|
D:|--x-x-x-x-x-x--x-x-1111/12/11--x--x-x-x-x--x-x--x-x-x-x-x-x-|
A:|-121212121212--8-8--x-x--x--x-10/-9-9-9-9-1010/-8-8/7-7-7-7-|
E:|--------------------9-9/10/-9-------------------------------|

e:|-----------------------|
B:|-----------------------|
G:|-10/12/10--9/10/9--7/6-|
D:|--x--x--x--x--x-x--x-x-|
A:|--8/10/-8--7/-8/7--5/4-|
E:|-----------------------|

End Chorus with:

Gtr I

e:|-------------|
B:|-------------|
G:|-7~~~~-7~~~~-|
D:|-7~~~~-7~~~~-|
A:|-5~~~~-5~~~~-|
E:|-------------|

Gtr II

e:|---------------------|
B:|---------------------|
G:|-7~~~~-7~~~~-----<7>-|
D:|-7~~~~-7~~~~-<7>-----|
A:|-5~~~~-5~~~~---------|
E:|---------------------|

Verse II Pt I:

Gtr I (x2)

e:|-----------------------------------------------------|
B:|-----------------------------------------------------|
G:|---------7---------7-----7---------7---------7-----7-|
D:|---------7---------7-----7---------7---------7-----7-|
A:|-5-5-5-5---5-5-5-5---5-5-----------------------------|
E:|---------------------------8-8-8-8---8-8-8-8---8-8---|
PM  * * * *   * * * *   * *   * * * *   * * * *   * *

e:|---------------------------------------------------|
B:|---------------------------------------------------|
G:|---------7---------7-----7---------6---------6h7p6-|
D:|---------7---------7-----7---------7---------7-7-7-|
A:|---------------------------------------------------|
E:|-6-6-6-6---6-6-6-6---6-6---5-5-5-5---5-5-5-5-------|
PM  * * * *   * * * *   * *   * * * *   * * * *

Gtr II (x2)

e:|-----------------------------------------------------------------|
B:|-----------------------------------------------------------------|
G:|-----------------------------------------------------------------|
D:|-7-7-7-7-7-7-7-7-7-7-7-7-7-7-7-7-5-5-5-5-5-5-5-5-5-5-5-5-5-5-5-5-|
A:|-5-5-5-5-5-5-5-5-5-5-5-5-5-5-5-5-3-3-3-3-3-3-3-3-3-3-3-3-3-3-3-3-|
E:|-----------------------------------------------------------------|
PM  * * * * * * * * * * * * * * * * * * * * * * * * * * * * * * * *

e:|-----------------------------------------------------------------|
B:|-----------------------------------------------------------------|
G:|-----------------------------------------------------------------|
D:|-3-3-3-3-3-3-3-3-3-3-3-3-3-3-3-3-2-2-2-2-2-2-2-2-2-2-2-2-2-2-2-2-|
A:|-1-1-1-1-1-1-1-1-1-1-1-1-1-1-1-1-0-0-0-0-0-0-0-0-0-0-0-0-0-0-0-0-|
E:|-----------------------------------------------------------------|
PM  * * * * * * * * * * * * * * * * * * * * * * * * * * * * * * * *

Verse II Pt II:

Gtr I (Repeat Pt II x2)

Gtr II

e:|-----------------------------------------------------------------|
B:|-----------------------------------------------------------------|
G:|-7-7-7-7-7-7-7-7-7-7-7-7-7-7-7-7/9-9-9-9-9-9-9-9-9-9-9-9-9-9-9-9-|
D:|-x-x-x-x-x-x-x-x-x-x-x-x-x-x-x-x-x-x-x-x-x-x-x-x-x-x-x-x-x-x-x-x-|
A:|-5-5-5-5-5-5-5-5-5-5-5-5-5-5-5-5/7-7-7-7-7-7-7-7-7-7-7-7-7-7-7-7-|
E:|-----------------------------------------------------------------|
[ Tab from: http://www.guitartabs.cc/tabs/m/my_chemical_romance/jetset_life_is_gonna_kill_you_tab.html ]
e:|------------------------------------------------------------------|
B:|------------------------------------------------------------------|
G:|-1010101010101010101010101010101010101010101010101010101010101010-|
D:|--x-x-x-x-x-x-x-x-x-x-x-x-x-x-x-x-x-x-x-x-x-x-x-x-x-x-x-x-x-x-x-x-|
A:|--8-8-8-8-8-8-8-8-8-8-8-8-8-8-8-8-8-8-8-8-8-8-8-8-8-8-8-8-8-8-8-8-|
E:|------------------------------------------------------------------|

e:|-------------------------------------------------------------------|
B:|-------------------------------------------------------------------|
G:|-10101010101010101010101010101010/12121212121212121212121212121212-|
D:|--x-x-x-x-x-x-x-x-x-x-x-x-x-x-x-x--x-x-x-x-x-x-x-x-x-x-x-x-x-x-x-x-|
A:|--8-8-8-8-8-8-8-8-8-8-8-8-8-8-8-8/10101010101010101010101010101010-|
E:|-------------------------------------------------------------------|

e:|-------------------------------------------|
B:|-------------------------------------------|
G:|-12/14/12-10101010101010101010101010101010-|
D:|--x--x--x--x-x-x-x-x-x-x-x-x-x-x-x-x-x-x-x-|
A:|-10/12/10--8-8-8-8-8-8-8-8-8-8-8-8-8-8-8-8-|
E:|-------------------------------------------|

Repeat Pre-Chorus

Repeat Chorus

Bridge Pt I:

Gtr II Clean with a weird effect

e:|-10----------10----------------10----------10----|
B:|----10----10----10----10----11----11----11----11-|
G:|-------10----------10----12----------12----------|
D:|-------------------------------------------------|
A:|-------------------------------------------------|
E:|-------------------------------------------------|
   
e:|-----6-------6---------10--------9---|
B:|---8---8---8---8----11----11---8---8-|
G:|-9-------9-------12----------9-------|
D:|-------------------------------------|
A:|-------------------------------------|
E:|-------------------------------------|

e:|-----5-------5---------10----------10----|
B:|---6---6---6---6----11----11----11----11-|
G:|-7-------7-------12----------12----------|
D:|-----------------------------------------|
A:|-----------------------------------------|
E:|-----------------------------------------|
   
e:|-----6-------6---------10--------9---|
B:|---8---8---8---8----11----11---8---8-|
G:|-9-------9-------12----------9-------|
D:|-------------------------------------|
A:|-------------------------------------|
E:|-------------------------------------|

Bridge Pt II:

Gtr I (x2)

e:|-----------------------------------------------------------------|
B:|-----------------------------------------------------------------|
G:|-----------------------------------------------------------------|
D:|-5-5-5-5-5-5-5-5-7-7-7-7-7-7-7-7-7-7-7-7-7-7-7-7-8-8-8-8-8-8-8-8-|
A:|-5-5-5-5-5-5-5-5-7-7-7-7-7-7-7-7-8-8-8-8-8-8-8-8-8-8-8-8-8-8-8-8-|
e:|-3-3-3-3-3-3-3-3-5-5-5-5-5-5-5-5-5-5-5-5-5-5-5-5-6-6-6-6-6-6-6-6-|
PM  * * * * * * * * * * * * * * * * * * * * * * * * * * * * * * * *

Gtr II plays bridge Pt I distorted

Repeat Chorus (x2)

Outro Pt I:

Gtr I (x2)

e:|-----------------------------------------------------------------|
B:|-----------------------------------------------------------------|
G:|-7-7-7-7---------6-6-6-6---------3-3-3-3-3-3-3-3-----------------|
D:|-7-7-7-7-3-3-3-3-6-6-6-6-5-5-5-5-3-3-3-3-3-3-3-3-5-5-5-5-5-5-5-5-|
A:|-5-5-5-5-3-3-3-3-4-4-4-4-5-5-5-5-1-1-1-1-1-1-1-1-5-5-5-5-5-5-5-5-|
E:|---------1-1-1-1---------3-3-3-3-----------------3-3-3-3-3-3-3-3-|

Gtr II (x2)

e:|---------------------------------------------------|
B:|---------------------------------------------------|
G:|-14141414-10101010-6/7/9/12/10~-1717/1515/14141414-|
D:|--x-x-x-x--x-x-x-x-x-x-x--x-x----x-x--x-x--x-x-x-x-|
A:|-12121212--8-8-8-8-4/5/7/10/8~--1515/1313/12121212-|
E:|---------------------------------------------------|

e:|---------------------|
B:|---------------------|
G:|-10/12/10-9/10/9-7/6-|
D:|--x-x--x--x-x--x-x-x-|
A:|--8/10/8--7/8/-7-5/4-|
E:|---------------------|

Outro Pt II:

Gtr I (x2)

e:|-----------------------------------------------------------------|
B:|-----------------------------------------------------------------|
G:|-7-7-7-7---------6-6-6-6---------3-3-3-3-3-3-3-3-----------------|
D:|-7-7-7-7-3-3-3-3-6-6-6-6-5-5-5-5-3-3-3-3-3-3-3-3-5-5-5-5-5-5-5-5-|
A:|-5-5-5-5-3-3-3-3-4-4-4-4-5-5-5-5-1-1-1-1-1-1-1-1-5-5-5-5-5-5-5-5-|
E:|---------1-1-1-1---------3-3-3-3-----------------3-3-3-3-3-3-3-3-|

Gtr II

e:|-10----------10----------------10----------10----|
B:|----10----10----10----10----11----11----11----11-|
G:|-------10----------10----12----------12----------|
D:|-------------------------------------------------|
A:|-------------------------------------------------|
E:|-------------------------------------------------|
   
e:|-----6-------6---------10--------9---|
B:|---8---8---8---8----11----11---8---8-|
G:|-9-------9-------12----------9-------|
D:|-------------------------------------|
A:|-------------------------------------|
E:|-------------------------------------|

e:|-----5-------5---------10----------10----|
B:|---6---6---6---6----11----11----11----11-|
G:|-7-------7-------12----------12----------|
D:|-----------------------------------------|
A:|-----------------------------------------|
E:|-----------------------------------------|
   
e:|-----6-------6---------10--------9---|
B:|---8---8---8---8----11----11---8---8-|
G:|-9-------9-------12----------9-------|
D:|-------------------------------------|
A:|-------------------------------------|
E:|-------------------------------------|

End on:

Both Gtr's

e:|-----------|
B:|-----------|
G:|-----------|
D:|-7-7~~~~~~-|
A:|-7-7~~~~~~-|
E:|-5-5~~~~~~-|

Gtr II

e:|-------------------------------------------------------|
B:|-------------------------------------------------------|
G:|-------------------------------------------------------|
D:|-------------------------------------------------------|
A:|-------------------------------------------------------|
e:|-//////////////////////Pick-Scrape////////////////////-|
Comments