My Chemical Romance - Jack The Ripper Chords & Tabs

 

Jack The Ripper Chords & Tabs

My Chemical Romance Chords & Tabs

Version: 1 Type: Bass Tab

Jack The Ripper Bass Tab

I have re done the intro and verse and im pretty sure they are correct now.
If there are any mistake email me at mcr2208@aol.com. Thanks

Intro
G |---------------------------------|
D |---------------2-----------------|
A |-------------2---3-3---3-0-2-3-2-|
E |-0-0---0-0-3---------------------|

Verse same as intro


Chorus
G |--------------------------------|-----------------4-2---1--------|
D |--------------------------------|-2-----------2-2-----------2----|
A |-0-------0-------0-2---4---2-4--|-----------------------------4--|
E |--------------------------------|--------------------------------|

G |--------------------------------|--------------------------------|
D |--------------------------------|-2---------------2-2---2--------|
A |-5---------------5-4---5---4-5--|---------------------------5-4--|
E |--------------------------------|--------------------------------|
[ Tab from: http://www.guitartabs.cc/tabs/m/my_chemical_romance/jack_the_ripper_btab.html ]
G |--------------------------------|-----------------4-2---1--------|
D |--------------------------------|-2-----------2-2-----------2----|
A |-0-------0-------0-2---4---2-4--|-----------------------------4--|
E |--------------------------------|--------------------------------|

G |--------------------------------|--------------------------------|
D |--------------------------------|-2-------2-------2-------2------|
A |-5---------------5-4---5---4-5--|--------------------------------|
E |--------------------------------|-----------------------------0-1|

Break
G |--------------------------------|--------------------------------|
D |--------------------------------|--------------------------------|
A |--------------------------------|--------------------------------|
E |-2---2--------------------------|-2---2--------------------------|


Order:
[00:24] Intro
Block
[00:35] Verse 8x
[00:58] Chorus
Repeat Above Block

[02:33] Break 2x
[02:45] Verse 4x
[03:07] Chorus 2x
[03:55] Break