My Chemical Romance - Its Not A Fasjion Statement Its A Deathwish Chords & Tabs

 

Its Not A Fasjion Statement Its A Deathwish Chords & Tabs

My Chemical Romance Chords & Tabs

Version: 1 Type: Bass Tab

Its Not A Fasjion Statement Its A Deathwish Bass Tab

Sorry i submited the wrong tab but its changed now and im subbmiting the i never
told u what i do for a living tab as well. Also sorry about the spelling.

Intro
  Q=213
 4/4
  Gtr I
|-----|
|-----|
|-----|
|-----|
|-----|
|-----|


|----------|---------|----------|-----|
|----------|---------|----------|-----|
|---4------|---------|---0------|-----|
|----------|---------|----------|-----|


|-----------|-----------|-----------------|------------------|
|-----------|-----------|-----------------|------------------|
|---2----2--|---2----2--|-----------------|------------------|
|-----------|-----------|-4-4-4-4-4-4-4-4-|-4-4-4-4-4-4-4-4--|


 Pre-Verse
|-----------------|-----------------|-----------------|------------------|
|-----------------|-----------------|-----------------|------------------|
|-4-4-4-4-4-4-4-4-|-4-4-4-4-4-4-4-4-|-0-0-0-0-0-0-0-0-|-0-0-0-0-0-0-0-0--|
|-----------------|-----------------|-----------------|------------------|


|-----------------|-----------------|-----------------|------------------|
|-----------------|-----------------|-----------------|------------------|
|-2-2-2-2-2-2-2-2-|-2-2-2-2-2-2-2-2-|-----------------|------------------|
|-----------------|-----------------|-4-4-4-4-4-4-4-4-|-4-4-4-4-4-4-4-4--|


|----------|-----|
|----------|-----|
|-4--------|-----|
|----------|-----|


   Verse
||------------------|-----------------|-----------------|-----------------|
||o-----------------|-----------------|-----------------|-----------------|
||o-4-4-4-4-4-4-4-4-|-4-4-4-4-4-4-4-4-|-0-0-0-0-0-0-0-0-|-0-0-0-0-0-0-0-0-|
||------------------|-----------------|-----------------|-----------------|


                                                                          3x
|-----------------|-----------------|-----------------|-------------------||
|-----------------|-----------------|-----------------|------------------o||
|-2-2-2-2-2-2-2-2-|-2-2-2-2-2-2-2-2-|-----------------|------------------o||
|-----------------|-----------------|-4-4-4-4-4-4-4-4-|-4-4-4-4-4-4-4-4---||


 Pre-Chorus
|-----------------|-----------------|-----------------|-----------------|
|-----------------|-----------------|-----------------|-----------------|
|-0-0-0-0-0-0-0-0-|-0-0-0-0-0-0-0-0-|-2-2-2-2-2-2-2-2-|-2-2-2-2-2-2-0---|
|-----------------|-----------------|-----------------|-----------------|


|-----------------|-----------------|-----------------|------------------|
|-----------------|-----------------|-----------------|------------------|
|-----------------|-----------------|-0-0-0-0-0-0-0-0-|-0-0-0-0-0-0-0-0--|
|-4-4-4-4-4-4-4-4-|-4-4-4-4-4-4-4-4-|-----------------|------------------|


|-----------------|-----------------|-----------------|------------------|
|-----------------|-----------------|-----------------|------------------|
|-4-4-4-4-4-4-4-4-|-4-4-4-4-4-4-4-4-|-2-2-2-2-2-2-2-2-|-2-2-2-2-2-2-2-2--|
|-----------------|-----------------|-----------------|------------------|


|-----------------|-----------------|------------|-----------------|
|-----------------|-----------------|------------|-----------------|
|-----------------|-----------------|------------|-----------------|
|-4-4-4-4-4-4-4-4-|-4-4-4-4-4-4-4-4-|-4---5---4--|-(4)-5---4h5p4---|


|----------|----------|----------|-----|
|----------|----------|----------|-----|
|----------|----------|----------|-----|
|-5--------|-------5--|-7--------|-----|


   Chorus
||-----------------|----------------|----------------|-----------------|
||o----------------|----------------|----------------|-----------------|
||o-7--7-7-7-7-7-7-|-6--6-6-6-6-6-6-|-4--4-4-4-4-4-4-|-4-4-4-4-4-4-4-4-|
||-----------------|----------------|----------------|-----------------|


|-----------------|-----------------|-----------------|-------------------||
|-----------------|-----------------|-----------------|------------------o||
|-----------------|-----------------|-----------------|------------------o||
|-5-5-5-5-5-5-5-5-|-5-5-5-5-5-5-5-5-|-7-7-7-7-7-7-7-7-|-7-7-7-7-7-7-7-7---||


 Pre-Verse
|----------|-----|
|----------|-----|
|-4--------|-----|
|----------|-----|


   Verse
||------------------|-----------------|-----------------|-----------------|
||o-----------------|-----------------|-----------------|-----------------|
||o-4-4-4-4-4-4-4-4-|-4-4-4-4-4-4-4-4-|-0-0-0-0-0-0-0-0-|-0-0-0-0-0-0-0-0-|
||------------------|-----------------|-----------------|-----------------|

[ Tab from: http://www.guitartabs.cc/tabs/m/my_chemical_romance/its_not_a_fasjion_statement_its_a_deathwish_btab.html ]
|-----------------|-----------------|-----------------|-------------------||
|-----------------|-----------------|-----------------|------------------o||
|-2-2-2-2-2-2-2-2-|-2-2-2-2-2-2-2-2-|-----------------|------------------o||
|-----------------|-----------------|-4-4-4-4-4-4-4-4-|-4-4-4-4-4-4-4-4---||


 Bridge
|-----|
|-----|
|-----|
|-----|


|-------------|-------------|-------------|---------------|
|-------------|-------------|-------------|---------------|
|-------------|-------------|-------------|---------------|
|-4--4--4--4--|-4--4--4--4--|-5--5--5--5--|-5--5--5-5-5---|


|-----------------|-----------------|-----------------|------------------|
|-----------------|-----------------|-----------------|------------------|
|-4-4-4-4-4-4-4-4-|-4-4-4-4-4-4-4-4-|-2-2-2-2-2-2-2-2-|-2-2-2-2-2-2-2-2--|
|-----------------|-----------------|-----------------|------------------|


|-----------------|-----------------|------------|-----------------|
|-----------------|-----------------|------------|-----------------|
|-----------------|-----------------|------------|-----------------|
|-4-4-4-4-4-4-4-4-|-4-4-4-4-4-4-4-4-|-4---5---4--|-(4)-5---4h5p4---|


 Verse
|----------|-----------|----------|---------|
|----------|-----------|----------|---------|
|----------|-----------|----------|---------|
|-0--------|-0--0------|-5--------|-5--5----|


|----------|-----------|----------|---------|
|----------|-----------|----------|---------|
|----------|-----------|----------|---------|
|-6--------|-6--6------|-7--------|-7--7----|


|----------|-------------|----------|-------------|
|----------|-------------|----------|-------------|
|----------|-------------|----------|-------------|
|-9--------|-(9)----9S===|=4--------|-(4)----4----|


|---------------|---------------|-----------------|------------------|
|---------------|---------------|-----------------|------------------|
|---------------|---------------|-----------------|------------------|
|-5-5-5--5-5-5--|-5-5-5--5-5-5--|-7-7-7-7-7-7-7-7-|-7-7-7-7-7-7-7-7--|


   Out-Chorus
||----------------|---------------|---------------|---------------|
||o---------------|---------------|---------------|---------------|
||o---------------|---------------|---------------|---------------|
||--0-0-0--0-0-0--|-0-0-0--0-0-0--|-5-5-5--5-5-5--|-5-5-5--5-5-5--|


|---------------|---------------|---------------|----------------|
|---------------|---------------|---------------|----------------|
|---------------|---------------|---------------|----------------|
|-6-6-6--6-6-6--|-6-6-6--6-6-6--|-7-7-7--7-7-7--|-7-7-7--7-7-7---|


|----------------|-----------------|----------------|------------------|
|----------------|-----------------|----------------|------------------|
|----------------|-----------------|----------------|------------------|
|-9--9-9-9-9-9-9-|-9-9-9-9-9-9-9-9-|-4--4-4-4-4-4-4-|-4-4-4-4-4-4-4-4--|


|----------------|-----------------|-----------------|-------------------||
|----------------|-----------------|-----------------|------------------o||
|----------------|-----------------|-----------------|------------------o||
|-5--5-5-5-5-5-5-|-5-5-5-5-5-5-5-5-|-7-7-7-7-7-7-7-7-|-7-7-7-7-7-7-7-7---||


|---------------|---------------|---------------|----------------|
|---------------|---------------|---------------|----------------|
|---------------|---------------|---------------|----------------|
|-0-0-0--0-0-0--|-0-0-0--0-0-0--|-5-5-5--5-5-5--|-5-5-5--5-5-5---|


|---------------|---------------|---------------|---------------|
|---------------|---------------|---------------|---------------|
|---------------|---------------|---------------|---------------|
|-6-6-6--6-6-6--|-6-6-6--6-6-6--|-7-7-7--7-7-7--|-7-7-7-7-7-----|


|----------------|-----------------|----------------|------------------|
|----------------|-----------------|----------------|------------------|
|----------------|-----------------|----------------|------------------|
|-9--9-9-9-9-9-9-|-9-9-9-9-9-9-9-9-|-4--4-4-4-4-4-4-|-4-4-4-4-4-4-4-4--|


|----------------|-----------------|-----------------|------------------|
|----------------|-----------------|-----------------|------------------|
|----------------|-----------------|-----------------|------------------|
|-5--5-5-5-5-5-5-|-5-5-5-5-5-5-5-5-|-7-7-7-7-7-7-7-7-|-7-7-7-7-7-7-7-7--|


|----------|---------|--------------|-------------*|
|----------|---------|--------------|-------------*|
|-4--------|---------|-4---4-4--2-4-|-(4)\--------*|
|----------|---------|--------------|-------------*|