My Chemical Romance - It's Not A Fashion Statement It's A Deathwish Chords & Tabs

 

It's Not A Fashion Statement It's A Deathwish Chords & Tabs

My Chemical Romance Chords & Tabs

Version: 2 Type: Tab 0 ratings
1 star 2 stars 3 stars 4 stars 5 stars
comments

It's Not A Fashion Statement It's A Deathwish Tab

   
----------------------------------------------------------------------------
   It's Not A Fashion Statement, It's A Deathwish - My Chemical Romance
----------------------------------------------------------------------------
Tabbed by: theused8zero1
Email: theused8zero1@aol.com


e|--------------------------------------------------------------------------|
B|--------------------------------------------------------------------------|
G|--------------------------------------------------------------------------|
D|-7-7-7-7-7-7-7-7-7-7-7-7-7--9-9-9-9-9-9-9-9-9-9-9-9-9--6--6--6--6--6--6---|
A|-x-x-x-x-x-x-x-x-x-x-x-x-x--x-x-x-x-x-x-x-x-x-x-x-x-x--6--6--6--6--6--6---|
E|-5-5-5-5-5-5-5-5-5-5-5-5-5--7-7-7-7-7-7-7-7-7-7-7-7-7--4--4--4--4--4--4---|
       ("I will avenge my ghost with every breath I take")
e|--------------------------------------------------------------------------|
B|--------------------------------------------------------------------------|
G|--------------------------------------------------------------------------|
D|-6--6----7--7--7--7--7--7--7--7-------------------------------------------|
A|-6--6----7--7--7--7--7--7--7--7---repeat-chorus--("I'm coming back...")---|
E|-4--4----5--5--5--5--5--5--5--5-------------------------------------------|
[ Tab from: http://www.guitartabs.cc/tabs/m/my_chemical_romance/its_not_a_fashion_statement_its_a_deathwish_tab_ver_2.html ]
e|--------------------------------------------------------------------------|
B|--------------------------------------------------------------------------|
G|-11-13-11-13-11-13-14--9--------------------------------------------------|
D|--x--x--x--x--x--x--x--x--------------------------------------------------|
A|--9-11--9-11--9/11-12--7--------------------------------------------------|
E|--------------------------------------------------------------------------|     ("I'm 
back the life you stole.")
e|--------------------------------------------------------------------------|
B|--------------------------------------------------------------------------|
G|-9-9-9-9-9-9-9-9-9-9-9-9-9-9-9-9-9-9-9-9-9-9--6-6-6-6-6-6-6-6--8-8-8-8----|
D|-x-x-x-x-x-x-x-x-x-x-x-x-x-x-x-x-x-x-x-x-x-x--x-x-x-x-x-x-x-x--x-x-x-x----|
A|-7-7-7-7-7-7-7-7-7-7-7-7-7-7-7-7-7-7-7-7-7-7--4-4-4-4-4-4-4-4--6-6-6-6----|
E|--------------------------------------------------------------------------|

e|--------------------------------------------------------------------------|
B|--------------------------------------------------------------------------|
G|-9-9-9-9--13-13-13-13-13-13-13-13-11-11-11-11-11-11-11--9-9-9-9-9-9-11-11-|
D|-x-x-x-x---x--x--x--x--x--x--x--x--x--x--x--x--x--x--x--x-x-x-x-x-x--x--x-|
A|-7-7-7-7--11-11-11-11-11-11-11-11--9--9--9--9--9--9--9--7-7-7-7-7-7--9--9-|
E|--------------------------------------------------------------------------|

e|--------------------------------------------------------------------------|
B|--------------------------------------------------------------------------|
G|-11--13--14-14-14-14-14-14--16-16-16--14--13-13-13-13-13-13--14-14-14--13-|
D|--x---x---x--x--x--x--x--x---x--x--x---x---x--x--x--x--x--x---x--x--x---x-|
A|--9--11--12-12-12-12-12-12--14-14-14--12--11-11-11-11-11-11--12-12-12--11-|
E|--------------------------------------------------------------------------|

e|--------------------------------------------------------------------------|
B|--------------------------------------------------------------------------|
G|-11--9-9-9-9-9-9--8-8-8-8-8-8--6-6-6-6-6-6-6-6---9-9-9-8-9\---------------|
D|--x--x-x-x-x-x-x--x-x-x-x-x-x--x-x-x-x-x-x-x-x---x-x-x-x-x\---------------|
A|--9--7-7-7-7-7-7--6-6-6-6-6-6--4-4-4-4-4-4-4-4---x-x-x-x-x\---------------|
E|-------------------------------------------------9-9-9-9-9\---------------|


| /  slide up
| \  slide down
| h  hammer-on
| p  pull-off
| ~  vibrato
| +  harmonic
| x  Mute note
============================================================================
Comments