My Chemical Romance - It's Not A Fashion Statement It's A Deathwish Chords & Tabs

 

It's Not A Fashion Statement It's A Deathwish Chords & Tabs

My Chemical Romance Chords & Tabs

Version: 1 Type: Tab 0 ratings
1 star 2 stars 3 stars 4 stars 5 stars
comments

It's Not A Fashion Statement It's A Deathwish Tab

   
----------------------------------------------------------------------------
   It's not a Fashion Statement, It's a Deathwish - My Chemical Romance
----------------------------------------------------------------------------
Tabbed by: theused8zero1
Email: theused8zero1@aol.com

Intro:

e|--------------------------------------------------------------------------|
B|--------------------------------------------------------------------------|
G|--6-6-6-6-6-6-6-6-6--6-6-6-6-8-9-8-6--9-9-9-8-8-8-8-8--6-6-8-6-5-5-5-5-5--|
D|--x-x-x-x-x-x-x-x-x--x-x-x-x-x-x-x-x--x-x-x-x-x-x-x-x--x-x-x-x-x-x-x-x-x--|
A|--4-4-4-4-4-4-4-4-4--x-x-x-x-x-x-x-x--x-x-x-x-x-x-x-x--x-x-x-x-x-x-x-x-x--|
E|---------------------5-5-5-5-5-5-5-5--7-7-7-7-7-7-7-7--4-4-4-4-4-4-4-4-4--|

e|--------------------------------------------------------------------------|
B|--------------------------------------------------------------------------|
G|--6-6-6-6-6-6-6-6-6--6-6-6-6-8-9-8-6--9-9-9-8-8-8-8-8---------------------|
D|--x-x-x-x-x-x-x-x-x--x-x-x-x-x-x-x-x--x-x-x-x-x-x-x-x--6-6-6-6-6-6-6-6-6--|
A|--4-4-4-4-4-4-4-4-4--x-x-x-x-x-x-x-x--x-x-x-x-x-x-x-x--6-6-6-6-6-6-6-6-6--|
E|---------------------5-5-5-5-5-5-5-5--7-7-7-7-7-7-7-7--4-4-4-4-4-4-4-4-4--|
                                                            (palm mute)
e|--------------------------------------------------------------------------|
B|--------------------------------------------------------------------------|
G|-9-9-9-9-9-9-9-9-9-8-9-9-9-9-9-9-9-9-9-11--13-13-13-13-13-13-13-13-13-11--|
D|-x-x-x-x-x-x-x-x-x-x-x-x-x-x-x-x-x-x-x--x---x--x--x--x--x--x--x--x--x--x--|
A|-7-7-7-7-7-7-7-7-7-6-7-7-7-7-7-7-7-7-7--9--11-11-11-11-11-11-11-11-11--9--|
E|--------------------------------------------------------------------------|

e|--------------------------------------------------------------------------|
B|--------------------------------------------------------------------------|
G|-9-9-9-9-9-9-11-11-11--8-8-8--6-6-6-6-6-6-6-6--9-9-9-13-13-13-13/14-13\---|
D|-x-x-x-x-x-x--x--x--x--x-x-x--x-x-x-x-x-x-x-x--x-x-x--x--x--x--x--x--x----|
A|-7-7-7-7-7-7--9--9--9--6-6-6--4-4-4-4-4-4-4-4--x-x-x-11-11-11-11/12-11\---|
E|-----------------------------------------------9-9-9----------------------|

Verse: play twice

e|--------------------------------------------------------------------------|
B|--------------------------------------------------------------------------|
G|-6-6-6-6-6-6-6-6-6-6------------------------------------------------------|
D|-6-6-6-6-6-6-6-6-6-6--7-7-7-7-7-7-7-7-7-7--9-9-9-9-9-9-9-9-9-9--6-6-6-6-6-|
A|-4-4-4-4-4-4-4-4-4-4--7-7-7-7-7-7-7-7-7-7--9-9-9-9-9-9-9-9-9-9--6-6-6-6-6-|
E|----------------------5-5-5-5-5-5-5-5-5-5--7-7-7-7-7-7-7-7-7-7--4-4-4-4-4-|
("do you remember back when we first met...")
e|--------------------------------------------------------------------------|
B|--------------------------------------------------------------------------|
G|--------------------------------------------------------------------------|
D|-6-6-6-6-6----------------------------------------------------------------|
A|-6-6-6-6-6----------------------------------------------------------------|
E|-4-4-4-4-4----------------------------------------------------------------|

Verse pt. 2:
[ Tab from: http://www.guitartabs.cc/tabs/m/my_chemical_romance/its_not_a_fashion_statement_its_a_deathwish_tab.html ]
e|--------------------------------------------------------------------------|
B|--------------------------------------------------------------------------|
G|--------------------------------------------------------------------------|
D|-7-7-7-7-7-7-7-7-7-7-7--9-9-9-9-9-9-9-9-9-9-9--6-6-6-6-6-6-6-6-6-6-6--7-7-|
A|-7-7-7-7-7-7-7-7-7-7-7--9-9-9-9-9-9-9-9-9-9-9--6-6-6-6-6-6-6-6-6-6-6--7-7-|
E|-5-5-5-5-5-5-5-5-5-5-5--7-7-7-7-7-7-7-7-7-7-7--4-4-4-4-4-4-4-4-4-4-4--5-5-|
("the damage you've inflicted...")
e|--------------------------------------------------------------------------|
B|--------------------------------------------------------------------------|
G|--------------------6-6-6-6-6-6-8-8-8-9-9-9-9--4-4-4-4-4-4-8-8-8-9-9-9-9--|
D|-7-7-7-7-7-7-7-7-7--x-x-x-x-x-x-x-x-x-x-x-x-x--x-x-x-x-x-x-x-x-x-x-x-x-x--|
A|-7-7-7-7-7-7-7-7-7--4-4-4-4-4-4-6-6-6-7-7-7-7--2-2-2-2-2-2-6-6-6-7-7-7-7--|
E|-5-5-5-5-5-5-5-5-5--------------------------------------------------------|
          ("I'm coming back from the dead...")
e|--------------------------------------------------------------------------|
B|--------------------------------------------------------------------------|
G|--------------------------------------------------------------------------|
D|-6-6-6-6-6-6-6-6-6-6-6-6--6-7-9-11-9/11\9--7--7-9-------------9-9-9-9-11--|
A|-6-6-6-6-6-6-6-6-6-6-6-6--x-x-x--x-x-x--x--7--7-9-------------x-x-x-x--x--|
E|-4-4-4-4-4-4-4-4-4-4-4-4--4-5-7--9-7/9\-7--5--5-7--pick slide-7-7-7-7--9--|
                      ("...the life you stole") ("we never got that far...")

e|--------------------------------------------------------------------------|
B|--------------------------------------------------------------------------|
G|--------------------------------------------------------------------------|
D|-11-11-9-11-13-13-13-13-13-14-13-11-9-9-9-9-9-9-9-9-9-9-11-11-11-11-11-11-|
A|--x--x-x--x--x--x--x--x--x--x--x--x-x-x-x-x-x-x-x-x-x-x--x--x--x--x--x--x-|
E|--9--9-7--9-11-11-11-11-11/12-11--9-7-7-7-7-7-7-7-7-7-7--9--9--9--9--9--9-|
                         ("bright lights that won't kill me now...")

e|--------------------------------------------------------------------------|
B|--------------------------------------------------------------------------|
G|--11-11-11-11-9-9-9-9-9-9-8-8-8-8-8-8-6-6-6-6-6-6-6-6---------------------|
D|--x--x--x--x--x-x-x-x-x-x-x-x-x-x-x-x-x-x-x-x-x-x-x-x--7-7-7-7-7-7-7-7-7--|
A|--9--9--9--9--7-7-7-7-7-7-6-6-6-6-6-6-4-4-4-4-4-4-4-4--7-7-7-7-7-7-7-7-7--|
E|-------------------------------------------------------5-5-5-5-5-5-5-5-5--|
                                                        ("just you and I..")

e|---------------------------------------------------------------------------|
B|---------------------------------------------------------------------------|
G|-----------------------------------6-6-6-6-6-6-6-6--9-9-9-13-13-13-13/14---|
D|-7-7-7-7--9-9-9-9-9-9-9-9-9-9-9-9--x-x-x-x-x-x-x-x--x-x-x--x--x--x--x--x---|
A|-7-7-7-7--9-9-9-9-9-9-9-9-9-9-9-9--4-4-4-4-4-4-4-4--x-x-x-11-11-11-11/12---|
E|-5-5-5-5--7-7-7-7-7-7-7-7-7-7-7-7-------------------9-9-9------------------|
      ("your starless eyes remain...")
e|--------------------------------------------------------------------------|
B|--------------------------------------------------------------------------|
G|-13\----------------------------------------------------------------------|
D|--x------repeat verse-----------------------------------------------------|
A|-11\----------------------------------------------------------------------|
E|--------------------------------------------------------------------------|


more on the way





| /  slide up
| \  slide down
| h  hammer-on
| p  pull-off
| ~  vibrato
| +  harmonic
| x  Mute note
===============================================================================
Comments