My Chemical Romance - Interlude Chords & Tabs

 

Interlude Chords & Tabs

My Chemical Romance Chords & Tabs

Version: 3 Type: Tab 0 ratings
1 star 2 stars 3 stars 4 stars 5 stars
comments

Interlude Tab

I was just sitting around one day and decided that I wanted to learn how to play this
song. Well, i took the liberty to check every fricken guitar tab site that i knew of and
couln't find even one tab for it. So, I took it upon myself and learned how to play it by
ear. mind you, i've only been playing guitar for a year so let me know what you think of
it....

P.S. i couldn't get the last part of the song down (sry)

Standard Tuning

Intro and "since we talked alone...."
[ Tab from: http://www.guitartabs.cc/tabs/m/my_chemical_romance/interlude_tab_ver_3.html ]
----------------------------------------------------------------------------|
-------7---------7--------7---------7---------7---------7---------7---------|
---6-----6---6-----6---6----6---6-----6---6-----6---6-----6---6-----6---6---|
-4---4-----4---4-----0---0----0---0-----------------------------------------|
----------------------------------------4---4-----4---4-----0---0-----------|
----------------------------------------------------------------------4---4-|

-----------|
-------7---|
---------6-|
-----------|
-----------|
-----------|   (REPEAT ALL AGAIN)

"Come...."

-------------------------------------------|
-------------------------------------------|
----------------6-------------------6------|
------------------7-------------------7----|
------0-----7-------7-----0-----7------7---|
-------------------------------------------|

(i haven't gotten the "...angels of unkown..." part yet but hey, spare me. i've only 
playing for a year and i tabbed this all out by ear and i've done a pretty fine job if i do 
so myself.)

     --Cristina--
Comments