My Chemical Romance - Im Not Okayi Promise Chords & Tabs

 

Im Not Okayi Promise Chords & Tabs

My Chemical Romance Chords & Tabs

Version: 1 Type: Tab 0 ratings
1 star 2 stars 3 stars 4 stars 5 stars
comments

Im Not Okayi Promise Tab

-------------------------------------------------------------------------------
                 I'm Not Okay(I Promise) Solo - My Chemical Romance
-------------------------------------------------------------------------------
Tabbed by: Devin Gauthier
Email: speedmetalman@hotmail.com

Tuning: Standard

I was looking for the guitar solo cause its the only good part in the song,
but none of them were right, everyone seems to miss the 2 other guitars doing the
harmony and the rhythm guitar, so i figured it out myself and decided to share,
i think its 100%(except for the rhythm guitar), if not email me.

Rhythm Guitar:
e|---------------------------------------------------------------------------|
B|---------------------------------------------------------------------------|
G|---------------------------------------------------------------------------|
D|-9-9-9-9--7-7-7-7--6-6-6-6--2-2-2-2--7-7-7-7--6-6-6-6--4-4-4-4--2-2-2-2----|
A|-9-9-9-9--7-7-7-7--6-6-6-6--2-2-2-2--7-7-7-7--6-6-6-6--4-4-4-4--2-2-2-2----|
E|-7-7-7-7--5-5-5-5--4-4-4-4--0-0-0-0--5-5-5-5--4-4-4-4--2-2-2-2--0-0-0-0----|


Solo(guitar 1):
e|---------------------------------------------------------------------------|
B|-15b-15b-15br-13-12h13-----------12-15b-15b-15br-13-15-15b-13v-------------|
G|-----------------------12v-12-14-------------------------------------------|
D|---------------------------------------------------------------------------|
A|---------------------------------------------------------------------------|
E|---------------------------------------------------------------------------|


[ Tab from: http://www.guitartabs.cc/tabs/m/my_chemical_romance/im_not_okayi_promise_tab.html ]
e|-------------------------14-12-10-12-10-9-10-9----9------------------------|
B|-13-12-13-15-13-12-13-15-----------------------12---12br-12v---------------|
G|---------------------------------------------------------------------------|
D|---------------------------------------------------------------------------|
A|---------------------------------------------------------------------------|
E|---------------------------------------------------------------------------|



e|---------------------------------10-12-13-12-10----------------------------|
B|------------------------10-12-13----------------13-12-10v------------------|
G|----------------9-10-12----------------------------------------------------|
D|---------10-12-------------------------------------------------------------|
A|---------------------------------------------------------------------------|
E|---------------------------------------------------------------------------|


Guitar 2(Harmony):
e|---------------------------------------------------------------------------|
B|---------------------------------------------------------------------------|
G|-16b-16b-16br-14-13-13h14-----------13-16b-16b-16br-14-16-16b-14v----------|
D|--------------------------14v-14-16----------------------------------------|
A|---------------------------------------------------------------------------|
E|---------------------------------------------------------------------------|


e|---------------------------------------------------------------------------|
B|---------------------------------------------------------------------------|
G|-14-13-14-16-14-13-14-16---------------------------------------------------|
D|---------------------------------------------------------------------------|
A|---------------------------------------------------------------------------|
E|---------------------------------------------------------------------------|

Guitar 3(Harmony):
e|---------------------------------------------------------------------------|
B|---------------------------------------------------------------------------|
G|---------------------------------------------------------------------------|
D|-9b-9b-9br-7-6-6h7-------------------6-7-9-9/11-7v--7-6-7-9-7-6-7-9--------|
A|-------------------7v--7-5-4-5-7-7/9---------------------------------------|
E|---------------------------------------------------------------------------|
Comments