My Chemical Romance - I'm Not Okay Chords & Tabs

 

I'm Not Okay Chords & Tabs

My Chemical Romance Chords & Tabs

Version: 1 Type: Tab 0 ratings
1 star 2 stars 3 stars 4 stars 5 stars
comments

I'm Not Okay Tab

.     -     palm mute
X     -     note mute
^     -     bend
*     -     bend 1/2
/     -     slide up
\     -     slide down
f     -     feedback
=     -     pick scrape
|     -     end of messure
[     -     begining of rift
]     -     end of rift

  Intro (0.00)
     (guitar 1)
[-------------------------]
[-------------------------]
[-7--7--7--7--7--7--7--7--]x4
[-X--X--X--X--X--X--X--X--]
[-5--5--5--5--5--5--5--5--]
[-------------------------]
    (guitar 2) comes in when the drums do
[-------------------------|-------------------------]
[-------------------------|-------------------------]
[-------------------------|-7--7--7--7----7----7----]
[-7--7--7--7--7--7--7--7--|-7--7--7--7----7----7----]
[-5--5--5--5--5--5--5--5--|-5--5--5--5----5----5----]
[-------------------------|-------------------------]
  .  .  .  .  .  .  .  .    .  .  .  .

  Chorus (0:05, 0:48, 1:31, 2:40)
    (guitar 1)
[-------------------------|-------------------------|------------------------|
[-15-15-15-15-15-15-15-15-|-10-10-10-10-10-10-10-10-|-8--8--8--8--8--8--8--8-|
[-X--X--X--X--X--X--X--X--|-X--X--X--X--X--X--X--X--|-X--X--X--X--X--X--X--X-|
[-12-12-12-12-12-12-12-12-|-7--7--7--7--7--7--7--7--|-5--5--5--5--5--5--5--5-|
[-------------------------|-------------------------|------------------------|
[-------------------------|-------------------------|------------------------|
     (guitar 2)
[-------------------------|-------------------------|------------------------|
[-------------------------|-------------------------|------------------------|
[-7--7--7--7--7--7--7--7--|-6--6--6--6--6--6--6--6--|-9--9--9--9--9--9--9--9-|
[-7--7--7--7--7--7--7--7--|-7--7--7--7--7--7--7--7--|-7--7--7--7--7--7--7--7-|
[-5--5--5--5--5--5--5--5--|-5--5--5--5--5--5--5--5--|-5--5--5--5--5--5--5--5-|
[-------------------------|-------------------------|------------------------|
     chorus continued (guitar 1)
|-------------------------]
|-7--7--7--7--7--7--7--7--]
|-X--X--X--X--X--X--X--X--]x2
|-4--4--4--4--4--4--4--4--]
|-------------------------]
|-------------------------]
     (guitar 2)
|-------------------------|
|-------------------------|
|-7--7--7--7--6--6--6-----|
|-7--7--7--7--7--7--7-----|
|-5--5--5--5--4--4--4-----|
|-------------------------|
     this is played as guitar 1 repeats (guitar 2)
|-------------------------|------------------------|------------------------|
|-------------------------|------------------------|-5--5--5--5--5--5--5--5-|
|-4--4--4--4--4--4--4--4--|-6--6--6--6--6--6--6--6-|-X--X--X--X--X--X--X--X-|
|-4--4--4--4--4--4--4--4--|-4--4--4--4--4--4--4--4-|-4--4--4--4--4--4--4--4-|
|-2--2--2--2--2--2--2--2--|-2--2--2--2--2--2--2--2-|-2--2--2--2--2--2--2--2-|
|-------------------------|------------------------|------------------------|

     (guitar 2 continued)
|-------------------------]
|-------------------------]
|-6--6--6--6--6--6--6--6--]
|-4--4--4--4--4--4--4--4--]
|-2--2--2--2--2--2--2--2--]
|-------------------------]
     (guitar 1 chorus continued)
[-------------------------|-------------------------|------------------------|
[-8--8--8--8--8--8--8--8--|-10-10-10-10-10-10-10-10-|-5--5--5--5--5--5--5--5-|
[-X--X--X--X--X--X--X--X--|-X--X--X--X--X--X--X--X--|-X--X--X--X--X--X--X--X-|
[-5--5--5--5--5--5--5--5--|-7--7--7--7--7--7--7--7--|-2--2--2--2--2--2--2--2-|
[-------------------------|-------------------------|------------------------|
[-------------------------|-------------------------|------------------------|
     (guitar 2 chorus continued)
[-------------------------|-------------------------|------------------------|
[-------------------------|-------------------------|------------------------|
[-------------------------|-------------------------|------------------------|
[-2--2--2--2--2--2--2--2--|-2--2--2--2--2--2--2--2--|-2--2--2--2--2--2--2--2-|
[-2--2--2--2--2--2--2--2--|-2--2--2--2--2--2--2--2--|-2--2--2--2--2--2--2--2-|
[-0--0--0--0--0--0--0--0--|-0--0--0--0--0--0--0--0--|-0--0--0--0--0--0--0--0-|
     (guitar 1 continued)
|-------------------------|-------------------------|------------------------|
|-5--5--5--5--5--5--5--5--|-8--8--8--8--8--8--8--8--|-10-10-10-10-10-10-1010-|
|-X--X--X--X--X--X--X--X--|-X--X--X--X--X--X--X--X--|-X--X--X--X--X--X--X--X-|
|-2--2--2--2--2--2--2--2--|-5--5--5--5--5--5--5--5--|-7--7--7--7--7--7--7--7-|
|-------------------------|-------------------------|------------------------|
|-------------------------|-------------------------|------------------------|
     (guitar 2 continued)
|-------------------------|-------------------------|------------------------|
|-------------------------|-------------------------|-0--0--0--0--0--0--0--0-|
|-------------------------|-2--2--2--2--2--2--2--2--|-2--2--2--2--2--2--2--2-|
|-2--2--2--2--2--2--2--2--|-2--2--2--2--2--2--2--2--|-2--2--2--2--2--2--2--2-|
|-2--2--2--2--2--2--2--2--|-0--0--0--0--0--0--0--0--|-0--0--0--0--0--0--0--0-|
|-0--0--0--0--0--0--0--0--|-------------------------|------------------------|
     (guitar 1 continued)
|-------------------------|-------------------------]
|-12-12-12-12-12-12-12-12-|-14-14-14-14-14-14-14-14-]
|-X--X--X--X--X--X--X--X--|-X--X--X--X--X--X--X--X--]
|-9--9--9--9--9--9--9--9--|-11-11-11-11-11-11-11-11-]
|-------------------------|-------------------------]
|-------------------------|-------------------------]
     (guitar 1 continued)
|-------------------------|-------------------------]
|-0--0--0--0--0--0--0--0--|-0--0--0--0--0--0--0--0--]
|-2--2--2--2--2--2--2--2--|-2--2--2--2--2--2--2--2--]
|-2--2--2--2--2--2--2--2--|-2--2--2--2--2--2--2--2--]
|-0--0--0--0--0--0--0--0--|-0--0--0--0--0--0--0--0--]
|-------------------------|-------------------------]

[ Tab from: http://www.guitartabs.cc/tabs/m/my_chemical_romance/im_not_okay_tab.html ]
  1st Verse (0.27) (guitar 1)  "If you wanted honesty......
[-------------------------|-------------------------|
[-------------------------|-------------------------|
[-------7--------7-----7--|-------7--------7-----7--|
[-------7--------7-----7--|-------7--------7-----7--|
[-5--5-----5--5-----5-----|-5--5-----5--5-----5-----|
[-------------------------|-------------------------|
     (guitar 2; all palm muted)
[-------------------------|-------------------------|
[-------------------------|-------------------------|
[-------------------------|-------------------------|
[-7--7--7--7--7--7--7--7--|-7--7--7--7--7--7--7--7--|
[-5--5--5--5--5--5--5--5--|-5--5--5--5--5--5--5--5--|
[-------------------------|-------------------------|
     (guitar 1)
|-------------------------|-------------------------|
|-------------------------|-------------------------|
|-------6--------6-----6--|-------7-----6--7--6--7--|
|-------7--------7-----7--|-------7-----7--7--7--7--|
|-5--5-----5--5-----5-----|-5--5-----5--------------|
|-------------------------|-------------------------|
    (guitar 2; pm)
|-------------------------|-------------------------|
|-------------------------|-------------------------|
|-------------------------|-------------------------|
|-7--7--7--7--7--7--7--7--|-7--7--7--7--7--7--7--7--|
|-5--5--5--5--5--5--5--5--|-5--5--5--5--4--4--4--4--|
|-------------------------|-------------------------|
    (guitar 1)  "I never want to let you down....
|-------------------------|-------------------------|
|-------------------------|-------------------------|
|-------7--------7-----7--|-------7--------7--------|
|-------7--------7-----7--|-------7--------7--------|
|-------------------------|-------------------------|
|-7--7-----7--7-----7-----|-7--7-----7--7-----7-----|
     (guitar 2; pm)
|-------------------------|-------------------------|
|-------------------------|-------------------------|
|-------------------------|-------------------------|
|-4--4--4--4--4--4--4--4--|-4--4--4--4--4--4--4--4--|
|-2--2--2--2--2--2--2--2--|-2--2--2--2--2--2--2--2--|
|-------------------------|-------------------------|
     (guitar 1)
|-------------------------|-------------------------|
|-------------------------|-------------------------|
|-------6--------6-----6--|-------7-----6--7--6--7--|
|-------7--------7-----7--|-------7-----7--7--7--7--|
|-------------------------|-------------------------|
|-7--7-----7--7-----7-----|-7--7-----7--------------|
     (guitar 2; pm)
|-------------------------|-------------------------|
|-------------------------|-------------------------|
|-------------------------|-------------------------|
|-4--4--4--4--4--4--4--4--|-4--4--4--4--4--4--4--4--|
|-2--2--2--2--2--2--2--2--|-2--2--2--2--2--2--2--2--|
|-------------------------|-------------------------|
     (guitar 1)  "For all the dirty looks....
|-------------------------|-------------------------|
|-------------------------|-------------------------|
|-------7--------7-----7--|-------7--------7-----7--|
|-------7--------7-----7--|-------7--------7-----7--|
|-------------------------|-------------------------|
|-0--0-----0--0-----0-----|-0--0-----0--0-----0-----|
     (guitar 2; pm)
|-------------------------|-------------------------|
|-------------------------|-------------------------|
|-------------------------|-------------------------|
|-------------------------|-------------------------|
|-2--2--2--2--2--2--2--2--|-2--2--2--2--2--2--2--2--|
|-0--0--0--0--0--0--0--0--|-0--0--0--0--0--0--0--0--|
     (guitar 1)
|-------------------------|-------------------------|
|-------------------------|-------------------------|
|-------6--------6-----6--|-------7-----6--7--6--7--|
|-------7--------7-----7--|-------7-----7--7--7--7--|
|-------------------------|-------------------------|
|-0--0-----0--0-----0-----|-0--0-----0--------------|
     (guitar 2; pm)
|-------------------------|-------------------------|
|-------------------------|-------------------------|
|-------------------------|-------------------------|
|-------------------------|-------------------------|
|-2--2--2--2--2--2--2--2--|-2--2--2--2--2--2--2--2--|
|-0--0--0--0--0--0--0--0--|-0--0--0--0--0--0--0--0--|
     (guitar 1)  "Remember when you broke your foot....
|-------------------------|-------------------------|
|-------------------------|-------------------------|
|-------7--------7-----7--|-------7--------7-----7--|
|-------7--------7-----7--|-------7--------7-----7--|
|-0--0-----0--0-----0-----|-0--0-----0--0-----0-----|
|-------------------------|-------------------------|
     (guitar 2; pm)
|-------------------------|-------------------------|
|-------------------------|-------------------------|
|-------------------4--4--|-4--4--4--4--4--4--4--4--|
|-2--2--2--2--2--2--2--2--|-2--2--2--2--2--2--2--2--|
|-0--0--0--0--0--0--0--0--|-0--0--0--0--0--0--0--0--|
|-------------------------|-------------------------|
     (guitar 1)
|-------------------------|-------------------------]
|-------------------------|-------------------------]
|-------6--------6-----4--|-6-----------6-----4-----]
|-------7--------7-----7--|-7-----------7-----7-----]
|-0--0-----0--0-----0-----|----0--0--0-----0--------]
|-------------------------|-------0--------0--------]
     (guitar 2)
|-------------------------|-------------------------]
|-------------------------|-------------------------]
|-6--6--6--6--6--6--6--6--|-6--6--6--6--6--6--------]
|-2--2--2--2--2--2--2--2--|-2--2--2--2--2--2--------]
|-0--0--0--0--0--0--0--0--|-0--0--0--0--0--0--0-----]
|-------------------------|-------------------0-----]
  .  .  .  .  .

(play chorus)
(guitar 1 goes to 2nd Verse)
(guitar 2 plays 1st Verse again)


  2nd Verse (1:09) (guitar 1)  "What will it take to show....
[-------------------------|-------------------------|
[-------------------------|-------------------------|
[-------7--------7--------|-9-----7-----6--7--6--7--|
[-------7--------7--------|-7-----7-----7--7--7--7--|x2
[-5--5-----5--5-----5--5--|----5-----5--------------|
[-------------------------|-------------------------|
  .  .     .  .     .  .       .     .

            "I've told you time and time.....
|-------------------------|-------------------------|
|-------------------------|-------------------------|
|-------7--------7--------|-9-----7-----6--7--6--7--|
|-------7--------7--------|-7-----7-----7--7--7--7--|x2
|-------------------------|-------------------------|
|-7--7-----7--7-----7--7--|----7-----7--------------|
  .  .     .  .     .  .       .     .

           "..what it means,to be a joke...."
|-------------------------|-------------------------|
|-------------------------|-------------------------|
|-------7--------7--------|-9-----7-----6--7--6--7--|
|-------7--------7--------|-7-----7-----7--7--7--7--|x2
|-------------------------|-------------------------|
|-0--0-----0--0-----0--0--|----0-----0--------------|
  .  .     .  .     .  .       .     .

           "I held you close as we both shook..."
|-------------------------|-------------------------|
|-------------------------|-------------------------|
|-------7--------7--------|-9-----7-----6--7--6--7--|
|-------7--------7--------|-7-----7-----7--7--7--7--|
|-0--0-----0--0-----0--0--|----0-----0--------------|
|-------------------------|-------------------------|
  .  .     .  .     .  .       .     .

           "for the last time, take a good hard look"
|-------------------------|-------------------------]
|-------------------------|-------------------------]
|-------7-------7---------|-6-----4-----6-----4-----]
|-7-----7-------7---------|-7-----7-----7-----7-----]
|----0--------0-----0--0--|----0-----------0--------]
|-------------------------|-------------------------]

     (play chorus again.)
[-------------------------]
[-14-14-14-14-------------]
[-X--X--X--X--------------]pre-solo
[-11-11-11-11--11*---11*--]
[-------------------------]
[-------------------------]

     (Then go to solo)

There are two parts to the solo and a third sounds even better.  But the bass can do
the same job as the third guitar can.

     Solo (1:52) with half-time feel(guitar 1)
[-------------------------|-------------------------|-----------------------|
[-15^---------15^---------|-15^---15----14----12~~~-|-12~~~-12-14~~~~~~~~~--|
[-------------------------|-------------------------|--------------13-------|
[-------------------------|-------------------------|-----------------------|
[-------------------------|-------------------------|-----------------------|
[-------------------------|-------------------------|-----------------------|
     (guitar 2)  If you have 3 guitars then one can take top notes and    the other
the lower ones.  if you only have 2 guitars then pick one that sounds better to you.
     (guitar 1)
|-------------------------|-------------------------|-----------------------|
|-12^---------12^---------|-12^--12---10----9~~~~~~-|-9~~~-9-10-~~~~~~~~~---|
|-------------------------|-------------------------|------------9----------|
|--9^----------9^---------|--9^---9----7----6-------|-6----6--7-------------|
|-------------------------|-------------------------|------------7----------|
|-------------------------|-------------------------|-----------------------|
     (guitar 1)
|-------------------------|-------------------------|-----------------------|
|-------------------12----|-15^---------15^---------|-15^---15----14----15~-|
|-13----13----14----------|-------------------------|-----------------------|
|-------------------------|-------------------------|-----------------------|
|-------------------------|-------------------------|-----------------------|
|-------------------------|-------------------------|-----------------------|
     (guitar 2)
|------12-----9-----10----|-------------------------|-----------------------|
|-------------------------|-12^---------12^---------|-12^---12----10----12~-|
|-9-----------------------|-------------------------|-----------------------|
|-------------------------|-------------------------|-----------------------|
|-7-----5-----4------5----|--7^----------9^---------|--6-----7-----9-----9--|
|-------------------------|-------------------------|-----------------------|
     (guitar 1)
|-------------------------|----------12----------12-|-17^---17----------17--|
|-15~~-(15)/17------14~~~-|-14\12-14----14-12-14----|-----------------------|
|-------------------------|-------------------------|-----------------------|
|-------------------------|-------------------------|-----------------------|
|-------------------------|-------------------------|-----------------------|
|-------------------------|-------------------------|-----------------------|
     (guitar 2)
|-------------------------|-------------------------|/14----12---10-12-10-9--|
|-12~~-(12)/14------10~~~-|-10--9-10-12-10--9-10-10-|------------------------|
|-------------------------|-------------------------|--7-----6-------6-------|
|-------------------------|-------------------------|-------------9-----9--7-|
|--9~~------9--------7~~~-|--7--5--7--9--7--5--7--9-|------------------------|
|-------------------------|-------------------------|------------------------|
     (guitar 1)                                          triplets
|-17---------------16*-16-|-16~~~~~~~~~~~~~~~~~~16\-|-------------90112109---|
|-------------------------|-------------------------|----------910--------12-|
|-------------------------|-------------------------|------911---------------|
|-------------------------|-------------------------|-1112-------------------|
|-------------------------|-------------------------|------------------------|
|-------------------------|-------------------------|------------------------|
     (guitar 2)
|-10--9-----9--------9----|-------------------------|------------------------|
|-------12----12^------12^|-12~~~~~~~~~~~~~~~~~~~~~-|------------------------|
|-------------------------|-------------------------|---------6-7-9-7-6------|
|--9--7--6--7--6-----6----|-------------------------|---6-7-9-----------9-76-|
|-----------------9-----9-|--7~~~~~~~~~~~~~~~~~~~~~-|-9----------------------|
|-------------------------|-------------------------|------------------------|


  Bridge (2:08) end half-time feel   "Forget about the dirty looks.."
     (guitar 1)
[-9-----------------------]
[-10----------------------]
[-------------------------]x4
[-7-----------------------]
[-------------------------]
[-------------------------]
     (guitar 2; pm)
[-------------------------]
[-------------------------]
[-------------------------]x8
[-2--2--2--2--2--2--2--2--]
[-0--0--0--0--0--0--0--0--]
[-------------------------]


  Breakdown (2:19) with half-time feel  "I'm okay.."
     (piano arrangement for guitar)
[--------------------17---|-15--14------------------|---------------------14-|
[-------------15----------|--------15---------------|---------------15-------|
[------14-----------------|---------------14--------|--------14--------------|
[-------------------------|-------------------------|------------------------|
[-------------------------|----------------------17-|-17---------------------|
[-------------------------|-------------------------|------------------------|
          (piano/guitar 1)
|-------------------------]
|---------------14-----17-]
|--------14---------------]
|-------------------------]  Guitar 2 plays feed back on the G string for a
|-16----------------------]  G# pitch the second time he said "I'm okay"
|-------------------------]
     (guitar 1 and 2) after piano part.  on the third messure guitar 1 holds the chord
and strapes the low E string.  Guitar 2 plays this.
|---|              |-------------------------|-------------------------|
|---|              |-------------------------|-------------------------|
|---|x2            |-------------------------|-------------------------|
|-4-|              |-4------------4----------|-------------------------|
|-2-|              |-2------------2--0--0--0-|-0----------------=====--|
|---|              |-------------------------|----1-----1--3----=====--|

     (guitar 1 and 2)  "...because I'm telling you the truth..."
|---|
|-2-|
|-2-|x2      "I mean this        I'm okay              Trust me"
|-2-|               |-------------------------|-------------------------|
|-0-|               |-------------------------|-------------------------|
|-0-|               |-------------------------|-------------------------|
                    |-2--2--2--2--2--2--2--2--|-2-----------------------|
                    |-0--0--0--0--0--0--0--0--|-0-----------------------|
                    |-------------------------|-------------------------|

Comments