My Chemical Romance - I'm Not Okay (i Promise) Chords & Tabs

 

I'm Not Okay (i Promise) Chords & Tabs

My Chemical Romance Chords & Tabs

Version: 8 Type: Tab 0 ratings
1 star 2 stars 3 stars 4 stars 5 stars
comments

I'm Not Okay (i Promise) Tab

   
Artist: My Chemical Romance
Song: Im not okay 
Album: Three Cheers for Sweet Revenge
Tabbed by:Color Me Misery
Aim:dontxopressxme
Standard ebgdaE
D  xx7x5x
B  xxx9x7
Em xxx2x0
A  xxx7x5

{Beginning}
Rhythm
e|-|
B|-|
g|7|
D|x|
A|5|
e|-|

{Intro}
Lead 
e[--10--10--10--10------------------------------------------]
b[------------------10--10--10--10--8--8--8--8--7--7--7--7--]
g[----------------------------------------------------------]
d[----------------------------------------------------------]
a[----------------------------------------------------------]
E[----------------------------------------------------------]

e[--10--10--10--10------------------------------------------]
b[------------------10--10--10--10--8--8--8--8--7--7--7--7--]
g[----------------------------------------------------------]
d[----------------------------------------------------------]
a[----------------------------------------------------------]
E[----------------------------------------------------------]

e[----------------------------------------------------------]
b[--8--8--8--8--10--10--10--10--5--5--5--5--5--5--5--5------]
g[----------------------------------------------------------]
d[----------------------------------------------------------]
a[----------------------------------------------------------]
E[----------------------------------------------------------]

e[----------------------------------------------------------]
b[8--8--8--8--10--10--10--10--12--12--12--12--14--14--14--14]
g[----------------------------------------------------------]
d[----------------------------------------------------------]
a[----------------------------------------------------------]
E[----------------------------------------------------------]

Rhythm (played simultaneously)
e|-------|-------|-----|--------|
b|-------|-------|-----|--------|
g|7------|7------|-----|--------|
d|x-7-5-4|x-7-5-4|5-7-2|5-7-9-11| 
a|5-x-x-x|5-x-x-x|x-x-x|x-x-x-x-|
E|--5-3-2|--5-3-2|3-5-0|3-5-7-9-|

{Verse One}
Rhythm
     D
Well if you wanted honesty that's all you had to say
     B
I never want to let you down or have you go its better off this way
     Em
For all the dirty looks, the photographs your boyfriend took
     A
Remember when you broke your foot from jumping out the second floor


{Chorus}
Lead plays intro Riff
[ Tab from: http://www.guitartabs.cc/tabs/m/my_chemical_romance/im_not_okay_i_promise_tab_ver_8.html ]
Rhythm
   e|-------|
   b|-------| 
   g|7------|
   D|x-7-5-4|
   A|5-x-x-x|
   E|--5-3-2|
I'm not okay.
      e|-------|
      b|-------|
      g|7------|
      D|x-7-5-4|
      A|5-x-x-x|
      E|--5-3-2|
I'm not okay.
      e|-----|
      b|-----|
      g|-----|
      D|5-7-2| 
      A|x-x-x|
      e|3-5-0|
I'm not okay.
      e|--------|
      b|--------|
      g|--------|
      D|5-7-9-11| 
      A|x-x-x-x-|
      e|3-5-7-9-|
You wear me out.

{Verse Two}
Rhythm
     D
What will it take to show you that it's not the life it seems?
(I'm not okay)
     B
I told you time and time again you sing the words but don't know what they mean
(I'm not okay)
     Em   
So be a joke and look, another line without a hook
     B
I held you close as we both shook for the last time take a good hard look!

{Chorus}

{Solo}
Lead
e|-------------------------------------------------------------------------|
b|-------------------------------------------------------------------------|
g|--------16^-----16^-----16^------16-14-13-14-13----13-14-16-16^-----16^--|
d|------------------------------------------------14-----------------------|
a|-------------------------------------------------------------------------|
E|-------------------------------------------------------------------------|

e|---------------------------------------------------12^-----12-10-12-10-9-|
b|------------------14-----------------------------------------------------|
g|-16^-----16-14-16---14---14-13-14-16-14-13-14-16-------------------------|
d|-------------------------------------------------------------------------|
a|-------------------------------------------------------------------------|
E|-------------------------------------------------------------------------|

e|-10-9-9^-7~------------------------------------10-13-10------------------|
b|------------------------------------------10-13--------13-10~------------|
g|-------------------------------------10-12-------------------------------|
d|--------------------------------10-12------------------------------------|
a|--------------------------10-12------------------------------------------|
E|-------------------------------------------------------------------------|

{Bridge}
Rhythm
e|-|
B|-|
g|-|
D|2|
A|x|
e|0|
Forget about the dirty looks
The photographs your boyfriend took?
You said you read me like a book, but the pages are all torn and frayed

{Chorus}(slow no guitar besides a little fill chord)

(Little Fill type thing here)
e|-|
B|-|
g|7|
D|x|
A|5|
e|-|
But you really need to listen to me
Because I'm telling you the truth
I mean this, I'm okay!(Trust Me)

{Chorus}
Comments