My Chemical Romance - I'm Not Okay (i Promise) Chords & Tabs

 

I'm Not Okay (i Promise) Chords & Tabs

My Chemical Romance Chords & Tabs

Version: 4 Type: Tab 1 rating
1 star 2 stars 3 stars 4 stars 5 stars
comments

I'm Not Okay (i Promise) Tab

       


       Band:My Chemical Romance
       Song:im not okay (i promise)
       Tabbed by: Ricky Dullin

       Im tabbing this song because another guy had all the chords
       but was to lazy to show what the p.m was and he did not tell
       how many times you need to play the chords.I still dont have         
       the solo yet.

        Intro pt. 1 (im not sure if you play first chord 20x's it just      
        right,  figure it out)
      |--------------|
      |--------------|
      |--7-------7--7|
      |--X--x20--X--X|
      |--5-------5--5|
      |--------------|

        2nd part of intro
      |-------------------------|--|--------------------------
      |-------------------------|--|--------------------------
      |--7----------------------|--|--------------------------
      |--X--x8-7-----5-----4----|x2|-5----7----2-----5----7---
      |--5-----X--x8-X--x8-X--x8|--|-X-x8-X-x8-X-x12-X-x8-X-x8      
      |--------5-----3-----2----|--|-3----5----0-----3----5---
[ Tab from: http://www.guitartabs.cc/tabs/m/my_chemical_romance/im_not_okay_i_promise_tab_ver_4.html ]
        2nd part con't.
      |-----------|
      |-----------|
      |-----------|
      |-9----11---|
      |-X-x8-X-x8-|
      |-7----9----|

       Verse (the palm muting part)
      |-------------------------------------------------------|
      |-------------------------------------------------------|
      |-------------------------------------------------------|
      |-2-----4-----5-----7-----777777777777------------------|
      |-X-x16-X-x16-X-x16-X-x16-XXXXXXXXXXXX------------------|
      |-0-----2-----3-----5-----555555555555------------------|
        .     .     .     .

      Chorus (same as the 2nd intro)

      

      Verse again


      During solo do verse palm muting


      after the piano part
      |-------------------------------------------------------|
      |-------------------------------------------------------|
      |-------------------------------------------------------|
      |-2~-2~-------------------------------------------------|
      |-X--X--------------------------------------------------|
      |-0~-0~-------------------------------------------------|
    
     

      the outro is the same as the chorus


      X      -    mute note
      .      -    palm mute
      ~      -    let ring
Comments