My Chemical Romance - I'm Not Okay (i Promise) Chords & Tabs

 

I'm Not Okay (i Promise) Chords & Tabs

My Chemical Romance Chords & Tabs

Version: 10 Type: Tab 0 ratings
1 star 2 stars 3 stars 4 stars 5 stars
comments

I'm Not Okay (i Promise) Tab

-----------------------------------------------------------------------------
I'M NOT OK (I PROMISE) SOLO - My Chemical Romance
-----------------------------------------------------------------------------
March 9, 2005

Tabbed by: CaL
Email: hobbes102@gmail.com

Tuning: Dropped D for guitar 3
        Dropped D or Std for guitars 1 and 2


i was sick of looking for correct tabs for the solo, so i wrote it myself. it actually
takes 3 guitars (simultaneously) to make it sound the way it does on the actual song..

guitar 1 - left side (dist)
guitar 2 - right side (dist)
guitar 3 - bckg (dist)

x    = mute
b(n) = bend (up to nth note)
P    = palm
p    = pulloff
~    = vibrato
=============================================================================
part 1

solo part 1 (guitar 1)
e|------------------------------------------------------------------------|
B|-----------------------------------------------------------17-14-15-----|
G|-----------16b(18)--16b(18)--16b(18)-16-14-13--13h14--------------------|
D|-----------------------------------------------------14-----------------|
A|------------------------------------------------------------------------|
D|------------------------------------------------------------------------|

solo part 1 (guitar 2)
e|------------------------------------------------------------------------|
B|-----------15b(17)--15b(17)--15b(17)-15-14-12---/14--------------12-----|
G|----------------------------------------------------13-----13-14--------|
D|------------------------------------------------------------------------|
A|------------------------------------------------------------------------|
D|------------------------------------------------------------------------|

solo part 1 (guitar 3)
e|------------------------------------------------------------------------|
B|------------------------------------------------------------------------|
G|------------------------------------------------------------------------|
D|-----------9-9-9-9-----------7-7-7-7-------6-6-6-6---2-2-6-6------------|
A|-----------9-9-9-9-----------7-7-7-7-------6-6-6-6---2-2-6-6------------|
E|-----------9-9-9-9-----------7-7-7-7-------6-6-6-6---2-2-6-6------------|
              p p p             P P P         P P P     P P P


=============================================================================
part 2

solo part 2 (guitar 1)
e|--------------------------------------------------------12----------12--|
B|------14----------------------------------------------------------------|
G|----------16b(18)--16b(18)-16-14-16--16/18-14--14-13-14----14-13-14-----|
D|------------------------------------------------------------------------|
A|------------------------------------------------------------------------|
D|------------------------------------------------------------------------|
[ Tab from: http://www.guitartabs.cc/tabs/m/my_chemical_romance/im_not_okay_i_promise_tab_ver_10.html ]
solo part 2 (guitar 2)
e|--------------------------------------------------------12----------12--|
B|-15b(17)--15b(17)--15b(17)-15-14-15--15/17-14--14-12-14----14-12-14-----|
G|------------------------------------------------------------------------|
D|------------------------------------------------------------------------|
A|------------------------------------------------------------------------|
D|------------------------------------------------------------------------|

solo part 1 (guitar 3)
e|------------------------------------------------------------------------|
B|------------------------------------------------------------------------|
G|------------------------------------------------------------------------|
D|-----------7-7-7-7-----------6-6-6-6-------4-4-4-4---2-2-7-7------------|
A|-----------7-7-7-7-----------6-6-6-6-------4-4-4-4---2-2-7-7------------|
E|-----------7-7-7-7-----------6-6-6-6-------4-4-4-4---2-2-7-7------------|
              P P P             P P P         P P P     P P P

=============================================================================
part 3


solo part 3 (guitar 1)
e|--12/14-12----12--------------------------------------------------------|
B|-----------15----15-14-15-14-12-14-12b(14)--12h14p12--------------------|
G|------------------------------------------------------------------------|
D|------------------------------------------------------------------------|
A|------------------------------------------------------------------------|
E|------------------------------------------------------------------------|

solo part 3 (guitar 2)
e|------------------------------------------------------------------------|
B|---9b(10)---(slow bend)----------------------9h10p9~--------------------|
G|------------------------------------------------------------------------|
D|------------------------------------------------------------------------|
A|------------------------------------------------------------------------|
E|------------------------------------------------------------------------|

solo part 3 (guitar 3)
e|------------------------------------------------------------------------|
B|------------------------------------------------------------------------|
G|------------------------------------------------------------------------|
D|-----------9-9-9-9-----7-7-7-7--------------------6-6-6-6---------------|
A|-----------9-9-9-9-----7-7-7-7--------------------6-6-6-6---------------|
E|-----------9-9-9-9-----7-7-7-7--------------------6-6-6-6---------------|
              P P P       P P P                      P P P

=============================================================================
part 4 (really fast)

solo part 5 (guitar 1)
e|------------------------------------------------------------------------|
B|--------------------------14-17-15-14-----------------------------------|
G|-----------------13-14-16-------------16-14~----------------------------|
D|--------13-14-16--------------------------------------------------------|
A|--14-16-----------------------------------------------------------------|
E|------------------------------------------------------------------------|

solo part 4 (guitar 2) (( ^ same as guitar 1 ^ ))

solo part 4 (guitar 3)
e|----------------------|
B|----------------------|
G|----------------------|
D|--2-2-6-6-7-----------|
A|--2-2-6-6-7-----------|
E|--2-2-6-6-7-----------|
     P P P

=============================================================================
the end. 99.99% guaranteed accuracy. comments/corrections welcome
Comments