My Chemical Romance - I Never Told You What I Do For A Living Chords & Tabs

 

I Never Told You What I Do For A Living Chords & Tabs

My Chemical Romance Chords & Tabs

Version: 1 Type: Tab 0 ratings
1 star 2 stars 3 stars 4 stars 5 stars
comments

I Never Told You What I Do For A Living Tab

I Never Told You What I Do For A Living- My Chemical Romance
Tabber: Shane 
EMOtionalRomance@hotmail.com
Note:I tabbed this out because there is no tab for this great song. So now...here it is,
enjoy. -I Love Steph McDonald-
Guitar 2
E|---------------------------------|--------------------------------|
B|---------------7h8-7-------------|--------------------------------|
G|---------------------------------|--------------------------------|
D|---------------------------------|--------------------------------|
A|-/pickslide/-------------//------|--------------------------------|
E|---------------------------------|--------------------------------|
Guitar 1
E|---------------------------------|--------------------------------|
B|---------------------------------|--------------------------------|
G|---------------------------------|--------------------------------|
D|-9-------2-------5-------4-------|--------------------------------|
A|-x-------x-------x-------x-------|--------------------------------|
E|-7-------0-------3-------2-------|--------------------------------|
   
Guitar 2
E|---------------------------------|--------------------------------|
B|---------------------------------|--------------------------------|
G|---------------------------------|-------------------2------------|
D|-------------------------------2-|-----------4---5-------5---4---5|
A|---2---4---5---4---2---2---4-----|---5---4------------------------|
E|---------------------------------|--------------------------------|
   
E|---------------------------------|--------------------------------|
B|---------------------------------|--------------------------------|
G|---------------------------------|--------------------------------|
D|---4---2---0---2-----------------|--------------------------------|
A|---------------------------------|--------------------------------|
E|---------------------------------|--------------------------------|

Guitar 1

E|---------------------------------|--------------------------------|
B|---------------------------------|--------------------------------|
G|---------------------------------|--------------------------------|
D|---------------------------------|--------------------------------|
A|---9---9---9---9---9-------------|---2---2---2---2---2------------|
E|---7---7---7---7---7-------------|---0---0---0---0---0------------|
   
E|---------------------------------|--------------------------------|
B|---------------------------------|--------------------------------|
G|---------------------------------|--------------------------------|
D|---------------------------------|--------------------------------|
A|---5---5---5---5---5-------------|---4---4---4---4---4------------|
E|---3---3---3---3---3-------------|---2---2---2---2---2------------|
   
Repeat until...




E|---------------------------------|--------------------------------|
B|---------------------------------|--------------------------------|
G|---------------------------------|--------------------------------|
D|-:---:---:-----------------------|--------------------------------|
A|-5---5---5-----------------------|--------------------------------|
E|-3---3---3-----------------------|--------------------------------|
   
E|---------------------------------|--------------------------------|
B|---------------------------------|--------------------------------|
G|---------------------------------|--------------------------------|
D|---:::::::::::-------------------|---:::::::::::------------------|
A|-9-99999999999-------------------|-2-22222222222------------------|
E|-7-77777777777-------------------|-0-00000000000------------------|
   
E|---------------------------------|--------------------------------|
B|---------------------------------|--------------------------------|
G|---------------------------------|--------------------------------|
D|---:::::::::::-------------------|---:::::::::::------------------|
A|-5-55555555555-------------------|-4-44444444444------------------|
E|-3-33333333333-------------------|-2-22222222222------------------|
   
Guitar 2
E|---------------------------------|--------------------------------|
B|---------------------------------|--------------------------------|
G|---------------------------------|--------------------------------|
D|---:::::::::::-------------------|---:::::::::::------------------|
A|-9-99999999999---7h9p7-----------|-2-22222222222---7h9p7----------|
E|-7-77777777777---------10--------|-0-00000000000---------10-------|
   
E|---------------------------------|--------------------------------|
B|---------------------------------|--------------------------------|
G|---------------------------------|--------------------------------|
D|---:::::::::::-------------------|--------------------------------|
A|-5-55555555555---7h9p7-----------|--------------------------------|
E|-3-33333333333---------10--------|-5/7-9-10-9---------------------|
   
Guitar 1
E|---------------------------------|--------------------------------|
B|---------------------------------|--------------------------------|
G|---------------------------------|--------------------------------|
D|---------------------------------|--------------------------------|
A|-2---------------4---------------|--------------------------------|
E|-0---------------0---------------|-7-------5-------3--------------|
   






[ Tab from: http://www.guitartabs.cc/tabs/m/my_chemical_romance/i_never_told_you_what_i_do_for_a_living_tab.html ]
E|---------------------------------|-clean--------------------------|
B|---------------------------------|-------------------0------------|
G|-4---------------6---------------|-----0-----0-----0--------------|
D|-x---------------x---------------|---0-----0-----0----------------|
A|-2---------------4---------------|-2-----2-----2------------------|
E|---------------------------------|--------------------------------|
   
E|---------------------------------|--------------------------------|
B|---------------------------------|--------------------------------|
G|-7-----------7---9---------------|--------------------------------|
D|-x-------9---x---x---------------|--------------------------------|
A|-5-------x---5---7---------------|--------------------------------|
E|---------7-----------------------|--------------------------------|
   
Both guitars
E|---------------------------------|--------------------------------|
B|---------------------------------|--------------------------------|
G|-:-:::-:-:::-:-:::--o-until heavy|--------------------------------|
D|-4-444-4-444-4-444--o----part----|--------------------------------|
A|-2-222-2-222-2-222---------------|--------------------------------|
E|---------------------------------|--------------------------------|
   
Guitar 2
E|---------------------------------|--------------------------------|
B|-0--------0----------------------|-12b----------------------------|
G|-----^--------^-----o-until heavy|--------------------------------|
D|---0-5-0----0-5-5---o-----part---|--------------------------------|
A|---------------------------------|--------------------------------|
E|---------------------------------|--------------------------------|
   
Heavy Part                           1.           2.
E|---------------------------------|------------|-------------------|
B|---------------------------------|------------|-------------------|
G|---------------------------------|------------|-------------------|
D|-4-44444-44444-4444--------------|-7---6---2--|-------------------|
A|-2-22222-22222-2222--------------|-5---4---0--|--5-7-5-4----------|
E|---------------------------------|------------|----------7-5------|
   
At the end of those riffs...
E|---------------------------------|--------------------------------|
B|---------------------------------|--------------------------------|
G|---------------------------------|--------------------------------|
D|-:-:-:---------------------------|--------------------------------|
A|-2-2-2---------------------------|--------------------------------|
E|-0-0-0---------------------------|--------------------------------|
   






Guitar 1
E|---------------------------------|--------------------------------|
B|---------------------------------|--------------------------------|
G|---------------------------------|--------------------------------|
D|---------------------------------|--------------------------------|
A|-2-------4-------9---7---5-------|-5-------4----------------------|
E|-0-------2-------7---5---3-------|-3-------2----------------------|
   
guitar 2
E|---------------------------------|-------clean--------------------|
B|---------------------------------|-------------------------0------|
G|-4-------6-------7---9---11------|----6------0-----0-----0--------|
D|-x-------x-------x---x----x------|----x----0-----0-----0----------|
A|-2-------4-------5---7----97h9p7|-5--4--2-----2-----2------------|
E|---------------------------------|--------------------------------|
   
clean
E|---------------------------------|--------------------------------|
B|---------------------------------|--------------------------------|
G|---------------------------------|--------------------------------|
D|-12-121212121212-12-12121212-11--|-11111111-11-11111111-9-9999-9--|
A|---------------------------------|--------------------------------|
E|---------------------------------|--------------------------------|
   
E|---------------------------------|--------------------------------|
B|---------------------------------|--------------------------------|
G|---------------------------------|--------------------------------|
D|-99-7-9-9999-9---12-1212121212-12|-14-14-11-11111111-9-9999-9-9-9-|
A|---------------------------------|--------------------------------|
E|---------------------------------|--------------------------------|
   
E|---------------------------------|--------------------------------|
B|---------------------------------|--------------------------------|
G|--------------o------------------|--------------------------------|
D|-79/11-9-----o------------------|--------------------------------|
A|---------------------------------|--------------------------------|
E|---------------------------------|--------------------------------|
   
Guitar 1
E|---------------------------------|--------------------------------|
B|---------------------------------|--------------------------------|
G|---------------------------------|--------------------------------|
D|-:-:-:-:-:-:-:-:-:-:-:-:-:-:-:-:-|-:-:----------------------------|
A|-5-5-5-5-5-5-7-7-7-7-7-7-9-9-9-9-|-9-9----------------------------|
E|-3-3-3-3-3-3-5-5-5-5-5-5-7-7-7-7-|-7-7----------------------------|
   






E|---------------------------------|--------------------------------|
B|---------------------------------|--------------------------------|
G|---------------------------------|--------------------------------|
D|-:-:-:-:-:-:-:-:-:---------------|--------------------------------|
A|-9-9-9-9-9-9-9-9-9---------------|--------------------------------|
E|-7-7-7-7-7-7-7-7-7---------------|--------------------------------|
   
E|---------------------------------|--------------------------------|
B|---------------------------------|--------------------------------|
G|---------------------------------|--------------------------------|
D|---------------------------------|--------------------------------|
A|-5-7-9-5-7-99-99-99-99-99--------|--------------------------------|
E|-3-5-7-3-5-77-77-77-77-77--------|--------------------------------|
   
Guitar 2
E|---------------------------------|--------------------------------|
B|---------------------------------|--------------------------------|
G|---------------------------------|--------------------------------|
D|-11h12p11-9-o--------------------|---11-12p11-11-12p11------------|
A|------------o--------------------|--------------------------------|
E|---------------------------------|--------------------------------|
   
E|---------------------------------|--------------------------------|
B|---------------------------------|--------------------------------|
G|-6/7\6-4---6/7\6-9-7-6-6/7\6-----|-4-4--4-4--4-4--4-4-------------|
D|-x/x\x-x-o-x/x\x-x-x-x-x/x\x-oall|-x-x--x-x--x-x--x-x-------------|
A|-4/5\4-2-o-4/5\4-7-5-4-4/5\4-o---|-2-2--2-2--2-2--2-2-------------|
E|---------------------------------|--------------------------------|
   
E|---------------------------------|--------------------------------|
B|---------------------------------|--------------------------------|
G|-7----9---14-12-11-11--9-7-9-11-9|-----7-----9--------------------|
D|-x----x----x--x--x--x--x-x-x--x-x|-----x-----x-----:-:-:-:-:-:----|
A|-5----7---12-10--9--9--7-5-7--9-7|-----5-----7-----9-9-9-9-9-9----|
E|---------------------------------|-----------------7-7-7-7-7-7----|
   
E|---------------------------------|--------------------------------|
B|---------------------------------|--------------------------------|
G|-6h7p6-4-------------------------|-44444444-66666666-7777777-99999|
D|---------o-----------------------|--------------------------------|
A|---------o-----------------------|--------------------------------|
E|---------------------------------|--------------------------------|
   









Guitar 3
E|-7-7777-7-7777-9-9999-9-9999-----|-10-10101010-10-----------------|
B|---------------------------------|--------------------------------|
G|---------------------------------|--------------------------------|
D|---------------------------------|--------------------------------|
A|---------------------------------|--------------------------------|
E|---------------------------------|--------------------------------|
   
guitar 2
E|------------------17----------15-|----------14--------------------|
B|-14-15---15-14-15----15-14-15----|-15-14-15----15--o--------------|
G|-------16------------------------|-----------------o--------------|
D|---------------------------------|--------------------------------|
A|---------------------------------|--------------------------------|
E|---------------------------------|--------------------------------|
   
                      
E|-13-13-13-13-13-13-13b13b13b13b13|b13b----------------------------|
B|---------------------------------|--------------------------------|
G|---------------------------------|--------------------------------|
D|---------------------------------|--------------------------------|
A|---------------------------------|--------------------------------|
E|---------------------------------|--------------------------------|
   
E|---------------------------------|--------------------------------|
B|---------------------------------|--------------------------------|
G|---------------------------------|--------------------------------|
D|---------------------------------|--------------------------------|
A|-9/10\7/9\7/9\7\5/9\7/10\2-------|--------------------------------|
E|-7-------------------------------|--------------------------------|
   
E|---------------------------------|--------------------------------|
B|---------------------------------|--------------------------------|
G|---------------------------------|--------------------------------|
D|---------------------------------|--------------------------------|
A|---------------------------------|--------------------------------|
E|---------------------------------|--------------------------------|
   
E|---------------------------------|--------------------------------|
B|---------------------------------|--------------------------------|
G|---------------------------------|--------------------------------|
D|---------------------------------|--------------------------------|
A|---------------------------------|--------------------------------|
E|---------------------------------|--------------------------------|
Comments