My Chemical Romance - I Never Told You What I Do For A Living Chords & Tabs

 

I Never Told You What I Do For A Living Chords & Tabs

My Chemical Romance Chords & Tabs

Version: 1 Type: Bass Tab 0 ratings
1 star 2 stars 3 stars 4 stars 5 stars
comments

I Never Told You What I Do For A Living Bass Tab

This is an easy song and it's VERY easy to put your own style into it.
In order to learn this song, you have to be able to listen for your part
very well and know this song just as well. This song is fast, so if you don't
want to do the mutes in the beginning just play the note instead of muting. Remember,
there are times when the drums smash 5 times - the bass follows that at times


r=rest
x=mute

INTRO(x1)

G------------------------------------------|
D------------------------------------------|
A---2R-------------------------------------|
E------------0R--------3R--------2R--------|

RIFF 1(x1)

G-------------------------------------------------------------------|
D-------------------------------------------------------------------|
A---xx2-x2-x2-x2-x2-------------------------------------------------|
E-------------------xx0-x0-x0-x0-x0--xx3-x3-x3-x3-x3--xx2-x2-x2-x2--|x2

RIFF 2 (x2)

G------------------------------------------------------------------|
D------------------------------------------------------------------|
A--2-22222222222222------------------------------------------------|
E-------------------0-00000000000000--3-33333333333333---2-2-2-2-2-|

RIFF 3(x1)

G---------------------------------------------|
D---------------------------------------------|
A-----------------2---------------------------|
E---3R-----5R----------5---4-4-44-------------|
[ Tab from: http://www.guitartabs.cc/tabs/m/my_chemical_romance/i_never_told_you_what_i_do_for_a_living_btab.html ]
G-----------------|
D-----------------|
A-----------------|
E---3R-----5R-----|

RIFF 1(x1)
RIFF 2(x2)
RIFF 3(X1)

RIFF 4(x5)

G-------------------------------------------|
D-------------------------------------------|
A--2-222-2-222-2-222-2-222------------------|
E-------------------------------------------|

RIFF 5(x4)

G-------------------------------------------|
D-------------------------------------------|
A--2-222-2-222-2-222--5-4-------------------|
E-------------------------5-----------------|

riff 5 alternative(x4)

G-------------------------------------------|
D-------------------------------------------|
A--2-222-2-222-2-222--5-4-0-----------------|
E-------------------------------------------|

RIFF 3(x1)

rest when he says "and never again..." the first time

RIFF 6(x2)

G----------------------------------------------------------|
D----------------------------------------------------------|
A---------------------------2-2-2-2-2-2--------------------|
E--3-3-3-3-3-3--5-5-5-5-5-5--------------3-3-3-3-3-3-3-----|

RIFF 7(x2)

same as riff 6, but don't stutter notes

also for riff 7, the second time around, the (2)'s follow the drums
then start riff 7 over


that's the song! i'm more than 100% sure that's it. i've played it so many times. if you 
find anything wrong, do not hesitate to correct me. it's not hard, like most of the 
in their songs.
It's fast, but if you manage to get it, then put some flava in it! Make it
interesting!

"SparX Will Fly"
Comments