My Chemical Romance - Honey This Mirror Isnt Big Enough For The Two Of Us Chords & Tabs

 

Honey This Mirror Isnt Big Enough For The Two Of Us Chords & Tabs

My Chemical Romance Chords & Tabs

Version: 1 Type: Bass Tab 0 ratings
1 star 2 stars 3 stars 4 stars 5 stars
comments

Honey This Mirror Isnt Big Enough For The Two Of Us Bass Tab

   
Artist:	My Chemical Romance
Song: Honey, This Mirror Isn't Big Enough For the Two of Us
Album: I Brought You My Bullets, You Brought Me Your Love

Bassist Mikey Way: Standard Tuning (G,D,A,E)



Intro	

		   
G:|--------------------------------------------------|
D:|--------------------------------------------------|
A:|-4444-66-77-3333-66-77-2222-66-77-10-10-88-77-88--| (x4)
E:|--------------------------------------------------|


Verse	

		                         
G:|------------------------------------|
D:|------------------------------------|
A:|-4-4444-4444-4442-------------------| (x2)
E:|------------------5-5555-5555-5554--|


G:|-----------------------------------------|
D:|-----------------------------------------|
A:|-4444-4444-2222-2222-1111-1111-0000-0000-| (x2)
E:|-----------------------------------------|


Pre-Chorus

[ Tab from: http://www.guitartabs.cc/tabs/m/my_chemical_romance/honey_this_mirror_isnt_big_enough_for_the_two_of_us_btab.html ]
G:|------------------------------------|
D:|------6/7~------7h8p7---------------|
A:|-4~---------7~----------------------|
E:|-----------------------4-4444-4444--|


Chorus


G:|---------------------------------------------|
D:|---------------------------------------------|
A:|---------------------------------------------|
E:|-5555-5555-0000-0000-4444-4444-22-122-121-22-|

G:|--------------------------------|
D:|--------------------------------|
A:|--4444-4444---------------------|
E:|------------0000-0000-2222-2222-|


Cont.


G:|------------------------|
D:|------------------------|
A:|------------------------|
E:|-4-4444-4444-5555-7777--|


Verse (x2)


Bridge

		(x2)			       (x2)
G:|------------------------------|-----------------------------------------|
D:|------------------------------|-----------------------------------------|
A:|-4-4-44-44-4-1-2-2-22---------|-4444-4444-2222-2222-1111-1111-0000-0000-|
E:|----------------------55-5-4--|-----------------------------------------|

	    	
Intro	

End ON

 G:|-----|
 D:|-----|
 A:|--4--| (x4)
 E:|-----|
Comments