My Chemical Romance - Helena Chords & Tabs

 

Helena Chords & Tabs

My Chemical Romance Chords & Tabs

Version: 3 Type: Tab 0 ratings
1 star 2 stars 3 stars 4 stars 5 stars
comments

Helena Tab

   
My Chemical Romance - Helena
Standard Tuning (EADGBe)
Robert Lydecker

The other tab for this song left out the lead for the chorus and it pissed
me off how it got good ratings.  So here is the correct version of Helena.

Intro: 
e|-------------------------------------------------------------------------|
B|-------------------------------------------------------------------------|
G|-------------------------------------------------------------------------|
D|14-x8-11-x8--13-x8--9-x4--11-x2--13-x2--14-x8--11-x8--9-x4--11-x4--13-x8-|
A|-------------------------------------------------------------------------|
E|-------------------------------------------------------------------------|
  .     .      .      .     .      .      .      .      .     .      .

Verse: Guitar 1 + 2
e|-------------------------------------------------------------------------|
B|-------------------------------------------------------------------------|
G|---666-666666--666-666666-------------------444-444444-------------------|
D|---666-666666--666-666666----222--222222----444-444444-------------------|
A|---444-444444--444-444444----222--222222----222-222222-------------------|
E|-----------------------------000--000000---------------------------------|

e|-------------------------------------------------------------------------|
B|-------------------------------------------------------------------------|
G|--------------------------666-666666---444-444444------------------------|
D|--------------------------666-666666---444-444444------------------------|
A|-777-777777--777-77777----444-444444---222-222222------------------------|
E|-444-444444--555-55555---------------------------------------------------|

Pre-Chorus: Guitar 1
e|--------------------------------------------------------|
B|--------------------------------------------------------|
G|---------------------66666666--44444444-----------------|
D|-66666666--77777777--66666666--44444444-----------------|
A|-66666666--77777777--44444444--22222222-----------------|
E|-44444444--55555555-------------------------------------|  

e|--------------------------------------------------------|
B|--------------------------------------------------------|
G|---------------------66666666--88888888-----------------|
D|-66666666--77777777--66666666--88888888-----------------|
A|-66666666--77777777--44444444--66666666-----------------|
E|-44444444--55555555-------------------------------------|  


Pre-Chorus: Guitar 2 
e|-------------------------------------------------------------------------|
B|-------------------------------------------------------------------------|
G|-8-8-8-8-8--11-11-11-11-11--9-9-9-9-9--11-11-11-11-11--------------------|
D|-x-x-x-x-x--x--x--x--x--x---x-x-x-x-x--x--x--x--x--x---------------------|
A|-6-6-6-6-6--9--9--9--9--9---7-7-7-7-7--9--9--9--9--9---------------------|
E|-------------------------------------------------------------------------|

e|-------------------------------------------------------------------------|
B|-------------------------------------------------------------------------|
G|-8-8-8-8-8--11-11-11-11-11--9-9-9-9-9--8-8-8-8-8-------------------------|
D|-x-x-x-x-x--x--x--x--x--x---x-x-x-x-x--x-x-x-x-x-------------------------|
A|-6-6-6-6-6--9--9--9--9--9---7-7-7-7-7--6-6-6-6-6-------------------------|
E|-------------------------------------------------------------------------|

The last time play this instead:
e|-------------------------------------------------------------------------|
B|-------------------------------------------------------------------------|
G|-8-8-8-8-8--11-11-11-11-11--9-9-9-9-9-9-9-9------------------------------|
D|-x-x-x-x-x--x--x--x--x--x---x-x-9-9-9-9-9-9------------------------------|
A|-6-6-6-6-6--9--9--9--9--9---7-7-7-7-7-7-7-7------------------------------|
E|-------------------------------------------------------------------------|



Chorus: Guitar 1
e|--------------------------------------------------------------|
B|--------------------------------------------------------------|
G|--9999999999--------------------------------------------------|
D|--9999999999--99999------------11-11-11-11-11-11-11-11-11-11--|
A|--7777777777--99999--99999999--11-11-11-11-11-11-11-11-11-11--|
E|--------------77777--88888888--9--9--9--9--9--9--9--9--9--9---|

e|--------------------------------------------------------------|
B|--------------------------------------------------------------|
G|-------------9------------------------------------------------|
D|-------------9------------------------------------------------|
A|-99999999999-7------------------------------------------------|
E|-88888888888--------------------------------------------------|

[ Tab from: http://www.guitartabs.cc/tabs/m/my_chemical_romance/helena_tab_ver_3.html ]
Guitar 2
e|---------------------------------------------------------------|
B|---------------------------------------------------------------|
G|-9-99999/1111/1313-111111111111-14/1313-16/14-/-13131313131313-|
D|-9-xxxxx-x-x--x-x--x-x-x-x-x-x--x--x-x--x--x----x-x-x-x-x-x-x--|
A|-7-77777/9-9/-1111-9-9-9-9-9-9--12/1111-14/12-/-11111111111111-|
E|---------------------------------------------------------------|


e|-------------------------------------------------------|
B|-------------------------------------------------------|
G|-14-1313-14-1313-11111111111111--888888---9------------|
D|-x--x-x--x--x-x--x-x-x-x-x-x-x---xxxxxx---9------------|
A|-12-1111-12-1111-9-9-9-9-9-9-9---666666---7------------|
E|-------------------------------------------------------|

Post-Chorus: (Clean)
e|----------------------------------------------------------|
B|---9-------9----------------------------------------------|
G|-----9-------9--------------------------------------------|
D|----------------------------------------------------------|
A|-7------7-------------------------------------------------|
E|----------------------------------------------------------|

Then Play:
Verse 
Pre Chorus
Chorus X2

The ending is different for the lead in the second chorus.
e|-----------------------------------------------------------|
B|-----------------------------------------------------------|
G|-14-1313-14-1313---11111111111111--13131313--11111111----9-|
D|-x--x-x--x--x-x----x-x-x-x-x-x-x---x--x--x---x-x-x-x-----9-|
A|-12-1111-12-1111---9-9-9-9-9-9-9---11111111--9-9-9-9-----7-|
E|-----------------------------------------------------------|


Bridge: Guitar 1
e|-------------------------------------------------------------|
B|-------------------------------------------------------------|
G|-------------------------------------------------------------|
D|-------------------------------------------------------------|
A|-777777777777--999999999999--777777777777-66666666666--------|
E|-------------------------------------------------------------|
   ............  ............  ............ ...........
e|-----------------------------------------------------------------------|
B|-----------------------------------------------------------------------|
G|-----------------------------------------------------------------------|
D|-----------------------------------------------------------------------|
A|-777777777777--999999999999--777777777777--6666-7777-9999-11-x4--------|
E|-----------------------------------------------------------------------|
   ............  ............  ............  .... .... .... .
e|-----------------------------------------------------------|
B|-----------------------------------------------------------|
G|-----------------------------------------------------------|
D|-----------------------------------------------------------|
A|-14-x8--11-x8--14-x8--11-x8--9-x6-7-x9--9-x10--7-x7--6-x9--|
E|-----------------------------------------------------------|
   .      .      .      .      .    .     .      .     .


Guitar 2: (Feedback)
e|------14b---------|
B|------------------|
G|------------------|
D|------------------|
A|------------------|
E|------------------|


Right before the last chorus
e|-------------------------------------------------------------|
B|-------------------------------------------------------------|
G|-8/9-8/9--11/9-9--9------------------------------------------|
D|-x-x-x-x--x--x-x--9------------------------------------------|
A|-6/7-6/7--9-/7-7--7------------------------------------------|
E|-------------------------------------------------------------|


CHORUS X2: The lead changes again
e|---------------------------------------------------------------
B|---------------------------------------------------------------
G|-9-99999-/1111/1313-111111111111-14/1313-16/14/13-16161616-----
D|-9-xxxxx--x-x--x-x--x-x-x-x-x-x--x--x-x--x--x--x--x-x-x-x------
A|-7-77777-/9-9-/1111-9-9-9-9-9-9--12/1111-14/12/11-14141414-----
E|---------------------------------------------------------------


e|----------------------------------------------------------------------|
B|----------------------------------------------------------------------|
G|-14141414-13131313/14-1313--11111111111111--13131313--11111111----9---|
D|-x-x-x-x--x-x-x-x--x--x-x---x-x-x-x-x-x-x---x-x-x-x---x-x-x-x-----9---|
A|-12121212-11111111/12-1111--9-9-9-9-9-9-9---11111111--9-9-9-9-----7---|
E|----------------------------------------------------------------------|


Outro:
e|----------------------------------------------|
B|----------------------------------------------|
G|----------------------------------------------|
D|-------------------------------------------7--|
A|-7777777777777777--999999999--6666666------7--|
E|-------------------------------------------5--|
   ................  .........  .......    

Another great band SELLS OUT.
Comments