My Chemical Romance - Helena Chords & Tabs

 

Helena Chords & Tabs

My Chemical Romance Chords & Tabs

Version: 2 Type: Tab 0 ratings
1 star 2 stars 3 stars 4 stars 5 stars
comments

Helena Tab

band: my chemical romance
song: helena
Tabbed by: shane henderson
email: lil_shano_123@hotmail.com
Tuning:Eadgbe (standard)


* = palm mute

(guitar 1\'s parts) GUITAR 2\'S PARTS COMING...

the strumming in this maybe rong but if you listen to the song ull get it.

intro:
e|--------------------------------------------------------------------------|
B|--------------------------------------------------------------------------|
G|--------------------------------------------------------------------------|
D|-14-x8-11-x8--13-x8--9-x4--11-x2--13-x2--14-x8--11-x8--9-x4--11-x4--13-x8-|
A|--------------------------------------------------------------------------|
E|--------------------------------------------------------------------------|
  PM ********************************************************************

verse
e|---------------------------------------------------------------------|
B|---------------------------------------------------------------------|
G|------------6-------------4-----------------------------6------4-----|
D|--x-x-x-x---6-x16--2------4-x4--------------------------6-x8---4-x8--|
A|--x-x-x-x---4------2-x8---2-----7-----7-----7-----7-----4------2-----|
E|--x-x-x-x----------0------------4-x4--5-x8--4x1---5-x8---------------|

pre chorus
e|------------------------------------------------------------|
B|------------------------------------------------------------|
G|------------6------4------------6---------------------------|
D|------------6-x8---4-x8---------6---9--X-X-X-X--------------|
A|-7-----7----4------2----7---7---4---6--X-X-X-X--------------|
E|-4-x8--5-x8-------------4---5----------X-X-X-X--------------|

 CHORUS
e|----------------------------------------------------------|
B|----------------------------------------------------------|
G|--9-------------------------------------------------------|
D|--9-x16-9-------------11----------------------------------|
A|--7-----9-x8---9-x8---11-x16----9-x16---------------------|
E|--------7------8-------9--------8-------------------------|
[ Tab from: http://www.guitartabs.cc/tabs/m/my_chemical_romance/helena_tab_ver_2.html ]
clean part just after chorus
e|----------------------------------------------------------|
B|---9-------9----------------------------------------------|
G|-------9-------9------------------------------------------|
D|----------------------------------------------------------|
A|-7---7---7---7--------------------------------------------|
E|----------------------------------------------------------|

BRIDGE
e|--------------------------------------------------------------------|
B|--------------------------------------------------------------------|
G|--------------------------------------------------------------------|
D|--------------------------------------------------------------------|
A|-7X8-6X4-7X2-9X2-11X8-9X8-7X8-6X4-7X2-9X2-11X8-9X4-11x2-12X2--14-X8-|
E|--------------------------------------------------------------------|
 PM*******************************************************************


 BRIDGE CONTINUED
e|-----------------------------------------------------------|
B|-----------------------------------------------------------|
G|-----------------------------------------------------------|
D|-----------------------------------------------------------|
A|-11-X8--9-X6--7-X2--11-X4--9-X4--7-X8--6-X4--7-X4----------|
E|-----------------------------------------------------------|
   *********************************************

PART AFTER BRIDGE
e|---------------------------------------------|
B|---------------------------------------------|
G|---------------------------------------------|
D|-999999999999999999999999999999999999--------|
A|-999999999999999999999999999999999999--------|
E|-777777777777777777777777777777777777--------|
 PM************************************

 ENDING
e|----------------------------------|
B|----------------------------------|
G|----------------------------------|
D|-------------------------------7~-|
A|-7-X16--14-X4--11-X4--7-X4-----7~-|
E|-------------------------------5~-|
 PM**********************

    SONG STRUCTURE:

    INTRO X1
    VERSE X1
    PRE CHORUS X1
    CHORUS X1
    CLEAN X1
    VERSE X1
    PRE CHORUS X1
    CHORUS X2
    BRIDGE
    PART AFTER BRIDGE X1
    CHORUS X2
    ENDING
Comments