My Chemical Romance - Helena Chords & Tabs

 

Helena Chords & Tabs

My Chemical Romance Chords & Tabs

Version: 1 Type: Tab 13 ratings
1 star 2 stars 3 stars 4 stars 5 stars
comments

Helena Tab

			helena - my chemical romance
-------------------------------------------------------------------------------
Tabbed by:chris
Email:muskytrollin@hotmail.com

Tuning: standard tunning
[ Tab from: http://www.guitartabs.cc/tabs/m/my_chemical_romance/helena_tab.html ]
intro:gtr1
e|---------------------------------------------------------------------------|
B|---------------------------------------------------------------------------|
G|16x16/13x16/15x16/11x8/13x4/15x4--/16x16/13x16/11x16/13x8/15x16------------|
D|-pm............................................................------------|
A|---------------------------------------------------------------------------|
E|---------------------------------------------------------------------------|
   gtr2
e|---------------------------------------------------------------------------|
B|---------------------------------------------------------------------------|
G|---------------------------------------------------------------------------|
D|14x16/11x16/13x16/9x8/11x4/13x4---/14x16/11x16/9x8/11x4/13x16--------------|
A|---------------------------------------------------------------------------|
E|---------------------------------------------------------------------------|
verse 
gtr1,2..gtr 1 plays samething as gtr2 untill the singer says 
       "and whats the worst to take"  figure out strumming and rythm from song
e|---------------------------------------------------------------------------|
B|---------------------------------------------------------------------------|
G|--6-----4--------------6--4--------6--4--------6--4------------------------|
D|--6--2--4--7-7-7-------6--4-7-7----6--4-7-7----6--4------------------------|
A|--4--2--2--7-7-7-------4--2-7-7----4--2-7-7----4--2------------------------|
E|-----0-----5-4-5------------4-5---------4-5--------------------------------|
gtr1 lead during verse.. figure out strumming and rythm from song
e|---------------------------------------------------------------------------|
B|---------------------------------------------------------------------------|
G|-6/11/9--------------------------------------------------------------------|
D|---------------------------------------------------------------------------|
A|-8/9/7---------------------------------------------------------------------|
E|---------------------------------------------------------------------------|
chorus gtr2
e|---------------------------------------------------------------------------|
B|---------------------------------------7-7---------------------------------|
G|----4--------4--------------------------7-7--------------------------------|
D|-2--4--7--6--4--2----------------------------------------------------------|
A|-2--2--7--6--2--2---------------------9--9---------------------------------|
E|-0-----4--4-----0----------------------------------------------------------|
gtr1 lead during chorus..figure out strumming and rythm from song
e|---------------------------------------------------------------------------|
B|---------------------------------------------------------------------------|
G|--9/11/13/16/14/13/9/11/13/14/13/14/11/8/9---------------------------------|
D|---------------------------------------------------------------------------|
A|--7/-9/11/14/12/11/7/-9/11/12/11/12/9/6/7----------------------------------|
E|---------------------------------------------------------------------------|
bridge gtr2..figure out strumming and rythm from song
e|---------------------------------------------------------------------------|
B|---------------------------------------------------------------------------|
G|---------------------------------------------------------------------------|
D|---------------------------------------------------------------------------|
A|---7/9/7/6/14/11/7/6----7/6/9/614/11/7/9/11--------------------------------|
E|---------------------------------------------------------------------------|
gtr1..figure out strumming and rythm from song
e|---------------------------------------------------------------------------|
B|---------------------------------------------------------------------------|
G|--9/11/13/14/16/13/14/13---8/9/11/16/13/8/9/11/9---------------------------|
D|---------------------------------------------------------------------------|
A|--7/-9/11/12/14/11/12/11---6/7/-6/14/11/6/7/-9/7---------------------------|
E|---------------------------------------------------------------------------|
outro gtr2 lets guitar ring out then hits the A chord
gtr1 plays..figure out strumming and rythm from song 
e|---------------------------------------------------------------------------|
B|---------------------------------------------------------------------------|
G|---------------------------------------------------------------------------|
D|---------------------------------------------------------------------------|
A|-7/14/6/7/7----------------------------------------------------------------|
E|----------5----------------------------------------------------------------|

Comments