My Chemical Romance - Helena Live Chords & Tabs

 

Helena Live Chords & Tabs

My Chemical Romance Chords & Tabs

Version: 2 Type: Tab 0 ratings
1 star 2 stars 3 stars 4 stars 5 stars
comments

Helena Live Tab

   
-------------------------------------------------------------------------------
			     HELENA - MY CHEMICAL ROMANCE
-------------------------------------------------------------------------------
Tabbed by: Matt Naumann
Email:naumannmatt@yahoo.com

Tuning:EADGBe

Intro (clean)
Lead - Frank
e|---------------------------------------------------------------------------|
B|---------------------------------------------------------------------------|
G|--9--8-96--4-44--6--8-64----9--11--8-646--8--9--8p6------------------------|
D|---------------------------------------------------------------------------|
A|---------------------------------------------------------------------------|
E|---------------------------------------------------------------------------|
    
e|---------------------------------------------------------------------------|
B|---------------------------------------------------------------------------|
G|--99999999-66666666-88888888-4444-66-88-99999999-66666666-4444-6666-8888---|
D|---------------------------------------------------------------------------|
A|---------------------------------------------------------------------------|
E|---------------------------------------------------------------------------|
    ******** ******** ******** **** ** ** ******** ******** **** **** ****

Rhythm - Ray
e|---------------------------------------------------------------------------|
B|---------------------------------------------------------------------------|
G|---------------------------------------------------------------------------|
D|---------------------------------------------------------------------------|
A|--444444444444-2222-444444444444-------------------------------------------|
E|---------------------------------0000--------------------------------------|

e|---------------------------------------------------------------------------|
B|---------------------------------------------------------------------------|
G|---------------------------------------------------------------------------|
D|---------------------------------------------------------------------------|
A|--444444444444-2222-4444444444-6666-777-999--------------------------------|
E|---------------------------------------------------------------------------|

e|---------------------------------------------------------------------------|
B|---------------------------------------------------------------------------|
G|---------------------------------------------------------------------------|
D|---------------------------------------------------------------------------|
A|--44444444444444444444----------4444-2222-4444444444444444-2222------------|
E|-----------------------00000000--------------------------------------------|

Verse 1 (with distortion)
Lead - Frank
e|---------------------------------------------------------------------------|
B|---------------------------------------------------------------------------|
G|--1313131313131313131313131313-4444-6666-8888-9999-------------------------|
D|--x-x-x-x-x-x-x-x-x-x-x-x-x-x--xxxx-xxxx-xxxx-xxxx-------------------------|
A|--1111111111111111111111111111-2222-4444-6666-7777-------------------------|
E|---------------------------------------------------------------------------|

e|---------------------------------------------------------------------------|
B|---------------------------------------------------------------------------|
G|--1111111111111111111111111111-13131313131313-11111111111111---------------|
D|--x-x-x-x-x-x-x-x-x-x-x-x-x-x--x-x-x-x-x-x-x--x-x-x-x-x-x-x----------------|
A|--9-9-9-9-9-9-9-9-9-9-9-9-9-9--11111111111111-9-9-9-9-9-9-9----------------|
E|---------------------------------------------------------------------------|

e|---------------------------------------------------------------------------|
B|---------------------------------------------------------------------------|
G|--8888-11111111-9999-11111111--8888-11111111-9999-8888---------------------|
D|--xxxx-x-x-x-x--xxxx-x-x-x-x---xxxx-x-x-x-x--xxxx-xxxx---------------------|
A|--6666-9-9-9-9--7777-9-9-9-9---6666-9-9-9-9--7777-6666---------------------|
E|---------------------------------------------------------------------------|

e|---------------------------------------------------------------------------|
B|---------------------------------------------------------------------------|
G|--8888-11111111-9999-11111111--8888-9999-1111111111111111------------------|
D|--xxxx-x-x-x-x--xxxx-x-x-x-x---xxxx-xxxx-x-x-x-x-x-x-x-x-------------------|
A|--6666-9-9-9-9--7777-9-9-9-9---6666-7777-9-9-9-9-9-9-9-9-------------------|
E|---------------------------------------------------------------------------|

Rhythm - Ray
e|---------------------------------------------------------------------------|
B|---------------------------------------------------------------------------|
G|--6666666666666666----------4444-------------------------------------------|
D|--6666666666666666-22222222-4444-------------------------------------------|
A|--4444444444444444-22222222-2222-7777-77777777-77777777--------------------|
E|-------------------00000000------4444-55555555-45555555--------------------|

e|---------------------------------------------------------------------------|
B|---------------------------------------------------------------------------|
G|--66666666-44444444------------------66666666-44444444---------------------|
D|--66666666-44444444------------------66666666-44444444---------------------|
A|--44444444-22222222-77777777-7777777-44444444-22222222---------------------|
E|--------------------44444444-5555555---------------------------------------|

e|---------------------------------------------------------------------------|
B|---------------------------------------------------------------------------|
G|--------------------66666666----------------------------------------------|
D|--------------------66666666-99999999--------------------------------------|
A|--77777777-77777777-44444444-66666666--------------------------------------|
E|--44444444-55555555--------------------------------------------------------|

Chorus (with distortion)
Lead - Frank
e|---------------------------------------------------------------------------|
B|---------------------------------------------------------------------------|
G|--9-999-99911-1113-11-111111-11111113-13161413-131313131314-13-131313------|
D|--x-xxx-xxxx--x-x--x--x-x-x--x-x-x-x--x-x-x-x--x-x-x-x-x-x--x--x-x-x-------|
A|--7-777-7779--9-11-9--9-9-9--9-9-9-11-11141211-111111111112-11-111111------|
E|---------------------------------------------------------------------------|

e|---------------------------------------------------------------------------|
B|---------------------------------------------------------------------------|
G|--9-11-1111119-8--4--------------------------------------------------------|
D|--x-x--x-x-x-x-x--x--------------------------------------------------------|
A|--7-9--9-9-9-7-6--2--------------------------------------------------------|
E|---------------------------------------------------------------------------|

Rhythm - Ray
e|---------------------------------------------------------------------------|
B|---------------------------------------------------------------------------|
G|--9999999999999999---------------------------------------------------------|
D|--9999999999999999-99999999-99999999-11111111111111111111111111111111------|
A|--7777777777777777-99999999-99999999-11111111111111111111111111111111------|
E|-------------------77777777-88888888-9-9-9-9-9-9-9-9-9-9-9-9-9-9-9-9-------|

e|---------------------------------------------------------------------------|
B|----------------------9---9------------------------------------------------|
G|---------------------9-9-9-9-----------------------------------------------|
D|--9999999999999999---------------------------------------------------------|
A|--9999999999999999--7---7--------------------------------------------------|
E|--8888888888888888---------------------------------------------------------|

Verse 2 (with distortion)
Lead - Frank
e|---------------------------------------------------------------------------|
B|---------------------------------------------------------------------------|
G|--1313131313131313131313131313-4444-6666-8888-9999-------------------------|
D|--x-x-x-x-x-x-x-x-x-x-x-x-x-x--xxxx-xxxx-xxxx-xxxx-------------------------|
A|--1111111111111111111111111111-2222-4444-6666-7777-------------------------|
E|---------------------------------------------------------------------------|

e|---------------------------------------------------------------------------|
B|---------------------------------------------------------------------------|
G|--1111111111111111111111111111-13131313131313-11111111111111---------------|
D|--x-x-x-x-x-x-x-x-x-x-x-x-x-x--x-x-x-x-x-x-x--x-x-x-x-x-x-x----------------|
A|--9-9-9-9-9-9-9-9-9-9-9-9-9-9--11111111111111-9-9-9-9-9-9-9----------------|
E|---------------------------------------------------------------------------|

e|---------------------------------------------------------------------------|
B|---------------------------------------------------------------------------|
G|--8888-11111111-9999-11111111--8888-11111111-9999-8888---------------------|
D|--xxxx-x-x-x-x--xxxx-x-x-x-x---xxxx-x-x-x-x--xxxx-xxxx---------------------|
A|--6666-9-9-9-9--7777-9-9-9-9---6666-9-9-9-9--7777-6666---------------------|
E|---------------------------------------------------------------------------|

e|---------------------------------------------------------------------------|
B|---------------------------------------------------------------------------|
G|--8888-11111111-9999-11111111--8888-9999-1111111111111111------------------|
D|--xxxx-x-x-x-x--xxxx-x-x-x-x---xxxx-xxxx-x-x-x-x-x-x-x-x-------------------|
A|--6666-9-9-9-9--7777-9-9-9-9---6666-7777-9-9-9-9-9-9-9-9-------------------|
E|---------------------------------------------------------------------------|
[ Tab from: http://www.guitartabs.cc/tabs/m/my_chemical_romance/helena_live_tab_ver_2.html ]
Rhythm - Ray
e|---------------------------------------------------------------------------|
B|---------------------------------------------------------------------------|
G|--6666666666666666----------4444-------------------------------------------|
D|--6666666666666666-22222222-4444-------------------------------------------|
A|--4444444444444444-22222222-2222-7777-77777777-77777777--------------------|
E|-------------------00000000------4444-55555555-45555555--------------------|

e|---------------------------------------------------------------------------|
B|---------------------------------------------------------------------------|
G|--66666666-44444444------------------66666666-44444444---------------------|
D|--66666666-44444444------------------66666666-44444444---------------------|
A|--44444444-22222222-77777777-7777777-44444444-22222222---------------------|
E|--------------------44444444-5555555---------------------------------------|

e|---------------------------------------------------------------------------|
B|---------------------------------------------------------------------------|
G|--------------------66666666----------------------------------------------|
D|--------------------66666666-99999999--------------------------------------|
A|--77777777-77777777-44444444-66666666--------------------------------------|
E|--44444444-55555555--------------------------------------------------------|

Chorus (with distortion)
Lead - Frank 
e|---------------------------------------------------------------------------|
B|---------------------------------------------------------------------------|
G|--9-999-99911-1113-11-111111-11111113-13161413-131313131314-13-131313------|
D|--x-xxx-xxxx--x-x--x--x-x-x--x-x-x-x--x-x-x-x--x-x-x-x-x-x--x--x-x-x-------|
A|--7-777-7779--9-11-9--9-9-9--9-9-9-11-11141211-111111111112-11-111111------|
E|---------------------------------------------------------------------------|

e|---------------------------------------------------------------------------|
B|---------------------------------------------------------------------------|
G|--9-11-1111119-8--4/5\4----------------------------------------------------|
D|--x-x--x-x-x-x-x--x-x-x----------------------------------------------------|
A|--7-9--9-9-9-7-6--2-2-2----------------------------------------------------|
E|---------------------------------------------------------------------------|

e|---------------------------------------------------------------------------|
B|---------------------------------------------------------------------------|
G|--9-999-99911-1113-11-111111-11111113-13161413-131313131314-13-131313------|
D|--x-xxx-xxxx--x-x--x--x-x-x--x-x-x-x--x-x-x-x--x-x-x-x-x-x--x--x-x-x-------|
A|--7-777-7779--9-11-9--9-9-9--9-9-9-11-11141211-111111111112-11-111111------|
E|---------------------------------------------------------------------------|

e|---------------------0-----------------------------------------------------|
B|---------------------x-----------------------------------------------------|
G|--9-11-1111119-13-11-9-----------------------------------------------------|
D|--x-x--x-x-x-x-x--x--9-----------------------------------------------------|
A|--7-9--9-9-9-7-11-9--7-----------------------------------------------------|
E|---------------------0-----------------------------------------------------|

Rhythm - Ray
e|---------------------------------------------------------------------------|
B|---------------------------------------------------------------------------|
G|--9999999999999999---------------------------------------------------------|
D|--9999999999999999-99999999-99999999-11111111111111111111111111111111------|
A|--7777777777777777-99999999-99999999-11111111111111111111111111111111------|
E|-------------------77777777-88888888-9-9-9-9-9-9-9-9-9-9-9-9-9-9-9-9-------|

e|---------------------------------------------------------------------------|
B|---------------------------------------------------------------------------|
G|-------------------9999999999999999----------------------------------------|
D|--9999999999999999-9999999999999999-99999999-99999999----------------------|
A|--9999999999999999-7777777777777777-99999999-99999999----------------------|
E|--8888888888888888------------------77777777-88888888----------------------|

e|----------------------------------------------------0----------------------|
B|----------------------------------------------------x----------------------|
G|----------------------------------------------------9----------------------|
D|--11111111111111111111111111111111-9999999999999999-9----------------------|
A|--11111111111111111111111111111111-9999999999999999-7----------------------|
E|--9-9-9-9-9-9-9-9-9-9-9-9-9-9-9-9--8888888888888888-0----------------------|

Bridge (clean)
e|---------------------------------------------------------------------------|
B|---------------------------------------------------------------------------|
G|--99999999-8888-99-1111-1313131313131313-1111111111111111------------------|
D|--xxxxxxxx-xxxx-xx-x-x--x-x-x-x-x-x-x-x--x-x-x-x-x-x-x-x-------------------|
A|--77777777-6666-77-9-9--1111111111111111-9-9-9-9-9-9-9-9-------------------|
E|---------------------------------------------------------------------------|

e|---------------------------------------------------------------------------|
B|---------------------------------------------------------------------------|
G|--99999999-8888-99-1111-1313131313131313-11111111-1313-1414----------------|
D|--xxxxxxxx-xxxx-xx-x-x--x-x-x-x-x-x-x-x--x-x-x-x--x-x--x-x-----------------|
A|--77777777-6666-77-9-9--1111111111111111-9-9-9-9--1111-1212----------------|
E|---------------------------------------------------------------------------|

e|---------------------------------------------------------------------------|
B|---------------------------------------------------------------------------|
G|--1616161616161616-14141414-13131313-1111111111111111-13131313-11111111----|
D|--x-x-x-x-x-x-x-x--x-x-x-x--x-x-x-x--x-x-x-x-x-x-x-x--x-x-x-x--x-x-x-x-----|
A|--1414141414141414-12121212-11111111-9-9-9-9-9-9-9-9--11111111-9-9-9-9-----|
E|---------------------------------------------------------------------------|

e|---------------------------------------------------------------------------|
B|---------------------------------------------------------------------------|
G|--99999999-8888-99999999-99999999-8/9-8/9-1198-----------------------------|
D|--xxxxxxxx-xxxx-xxxxxxxx-xxxxxxxx-x-x-x-x-x-xx-----------------------------|
A|--77777777-6666-77777777-77777777-6/7-6/7-9-76-----------------------------|
E|---------------------------------------------------------------------------|
                           ********(with distortion)
Chorus (with distortion)
Lead - Frank 
e|---------------------------------------------------------------------------|
B|---------------------------------------------------------------------------|
G|--9-999-99911-1113-11-111111-11111113-13161413-131313131314-13-131313------|
D|--x-xxx-xxxx--x-x--x--x-x-x--x-x-x-x--x-x-x-x--x-x-x-x-x-x--x--x-x-x-------|
A|--7-777-7779--9-11-9--9-9-9--9-9-9-11-11141211-111111111112-11-111111------|
E|---------------------------------------------------------------------------|

e|---------------------------------------------------------------------------|
B|---------------------------------------------------------------------------|
G|--9-11-1111119-8--4/5\4----------------------------------------------------|
D|--x-x--x-x-x-x-x--x-x-x----------------------------------------------------|
A|--7-9--9-9-9-7-6--2-2-2----------------------------------------------------|
E|---------------------------------------------------------------------------|

e|---------------------------------------------------------------------------|
B|---------------------------------------------------------------------------|
G|--9111111-999-911111113-9111111-999-911111113------------------------------|
D|--xx-x-x--xxx-xx-x-x-x--xx-x-x--xxx-xx-x-x-x-------------------------------|
A|--79-9-9--777-79-9-9-11-79-9-9--777-79-9-9-11------------------------------|
E|---------------------------------------------------------------------------|

e|---------------------------------------------------------------------------|
B|---------------------------------------------------------------------------|
G|--9111111-999-911111113-9111111-999-911111113------------------------------|
D|--xx-x-x--xxx-xx-x-x-x--xx-x-x--xxx-xx-x-x-x-------------------------------|
A|--79-9-9--777-79-9-9-11-79-9-9--777-79-9-9-11------------------------------|
E|---------------------------------------------------------------------------|

e|---------------------------------------------------------------------------|
B|---------------------------------------------------------------------------|
G|--161616-14-1414-131313-9-99-888-9-13-11-9---------------------------------|
D|--x-x-x--x--x-x--x-x-x--x-xx-xxx-x-x--x--9---------------------------------|
A|--141414-12-1212-111111-7-77-666-7-11-9--7---------------------------------|
E|-----------------------------------------0---------------------------------|

Rhythm - Ray
e|---------------------------------------------------------------------------|
B|---------------------------------------------------------------------------|
G|--9999999999999999---------------------------------------------------------|
D|--9999999999999999-99999999-99999999-11111111111111111111111111111111------|
A|--7777777777777777-99999999-99999999-11111111111111111111111111111111------|
E|-------------------77777777-88888888-9-9-9-9-9-9-9-9-9-9-9-9-9-9-9-9-------|

e|---------------------------------------------------------------------------|
B|---------------------------------------------------------------------------|
G|-------------------9999999999999999----------------------------------------|
D|--9999999999999999-9999999999999999-99999999-99999999----------------------|
A|--9999999999999999-7777777777777777-99999999-99999999----------------------|
E|--8888888888888888------------------77777777-88888888----------------------|

e|---------------------------------------------------------------------------|
B|---------------------------------------------------------------------------|
G|----------------------------------------------------7----------------------|
D|--11111111111111111111111111111111-9999999999999999-7----------------------|
A|--11111111111111111111111111111111-9999999999999999-9----------------------|
E|--9-9-9-9-9-9-9-9-9-9-9-9-9-9-9-9--8888888888888888-0----------------------|

| *  palm mute
| /  slide up
| \  slide down
| h  hammer-on
| p  pull-off
| ~  vibrato
| +  harmonic
| x  Mute note
===============================================================================
Comments