My Chemical Romance - Helena Chords & Tabs

 

Helena Chords & Tabs

My Chemical Romance Chords & Tabs

Version: 4 Type: Bass Tab

Helena Bass Tab

   
this is an easy way of doing this song because my bassist
of my band isn't very used to it yet. I tabbed it out for him but
I wanted to see whether anyone else would benefit from it!

Intro

G|----------------------------------------------|
D|----------------------------------------------|
A|-4(x16)--------2(x4)--------------4(x8)-2(x8)-|
E|--------0(x8)-------4(x4)-5(x16)--------------|

Verse
Same as above

Pre-chorus

G|-------------------------------------------------|
D|-------------------------------------------------|
A|-------------4(x8)-2(x8)-------------4(x8)-6(x8)-|
E|-4(x8)-5(x8)-------------4(x8)-5(x8)-------------|

Chorus
[ Tab from: http://www.guitartabs.cc/tabs/m/my_chemical_romance/helena_btab_ver_4.html ]
G|------------------------------------|
D|------------------------------------|
A|-7(x16)--------------------------7--|
E|--------7(x8)-8(x8)-9(x16)-8(16)----|

Bridge

G|-------------------------------------|
D|-------------------------------------|
A|-7(x8)-6(x4)-7(x2)-9(x2)-7(x8)-6(x8)-|x2
E|-------------------------------------|

G|-------------------------------------------------|
D|-------------------------------------------------|
A|-2(x8)-------2(x8)-------------2(x8)-7(x1)-6(x8)-|
E|-------4(x8)-------4(x4)-2(x4)-------------------|

G|--------|
D|--------|
A|-2(x16)-|
E|--------|

Song order
Intro
Verse
Pre-chorus
Chorus
Verse
Pre-chorus
Chorus x2
Bridge
Chorus x2
End (same as verse and intro)