My Chemical Romance - Headfirst For Halos Chords & Tabs

 

Headfirst For Halos Chords & Tabs

My Chemical Romance Chords & Tabs

Version: 4 Type: Tab

Headfirst For Halos Tab

                                    x2
|-----------|---------|---------|-----------|
|---7h10----|-7h10----|-7h10----|-7h10------|
|-o------10-|------10-|------10-|------10-o-|
|-o---------|---------|---------|---------o-|
|-----------|---------|---------|-----------|
|-----------|---------|---------|-----------|

                           x2
|---------|-------|-------|---------|
|---8p7---|-8p7---|-8p7---|-8p7-----|
|-o-----9-|-----9-|-----9-|-----9-o-|
|-o-------|-------|-------|-------o-|
|---------|-------|-------|---------|
|---------|-------|-------|---------|

     x8
|-------|
|-7p5---|
|-----7-|
|-------|
|-------|
|-------|

[ Tab from: http://www.guitartabs.cc/tabs/m/my_chemical_romance/headfirst_for_halos_tab_ver_4.html ]
                                    x2
|-----------|---------|---------|-----------|
|---7h10----|-7h10----|-7h10----|-7h10------|
|-o------10-|------10-|------10-|------10-o-|
|-o---------|---------|---------|---------o-|
|-----------|---------|---------|-----------|
|-----------|---------|---------|-----------|

                           x2
|---------|-------|-------|---------|
|---8p7---|-8p7---|-8p7---|-8p7-----|
|-o-----9-|-----9-|-----9-|-----9-o-|
|-o-------|-------|-------|-------o-|
|---------|-------|-------|---------|
|---------|-------|-------|---------|

     x8
|-------|
|-7p5---|
|-----7-|
|-------|
|-------|
|-------|

[ Tab from: http://www.guitartabs.cc/tabs/m/my_chemical_romance/headfirst_for_halos_tab_ver_4.html ]
|----------------------------------------------------------------------|
|--------7--------7----------------------------------------------------|
|-7~-7-9--------9---7-7-9-11-12-11-9-11-9h11p9h11p9-7~-7-9-11/12-12-12-|
|----------9~-9--------------------------------------------------------|
|----------------------------------------------------------------------|
|----------------------------------------------------------------------|


|----------------12-14/15-15~-|
|-12-14/15-15-15--------------|
|-----------------------------|
|-----------------------------|
|-----------------------------|
|-----------------------------|